Song name
# A B C D E F G H I J K L M N O P Q R S T U V W X Y Z

Misc Unsigned Bands - Hour By Hour - The Ballad Of A White Emo Kid tab

This is a song that my band is working on so i decided to make this tab to see 
what people think about it and so we don't have to write it on sheets of paper.

______Intro____________________________________________________
e--1------1------1----1-----1---1---1----2---2---------2------/
b3------3------3------3----3-3-3-3-3-3--4-4-4-4----4---------/
g----2------2------2------2---2---2----3---3---3------------/
d----------------------------------------------------------/
a---------------------------------------------------------/
e--------------------------------------------------------/
 Note: Slow Down Near End

______Medley________________________________________________________________

_____________Guitar#1___________________________________________
e--------------------------------------------------------------/
b-------------------------------------------------------------/
g------------------------------------------------------------/ x10
d-----------------------------------------------------------/
a-11-11/---------/9-9/----------/14-14/----------/13-13/---/
e-9--9/----------/7-7/----------/12-12/----------/11-11/--/

_____________Guitar#2_________________________________________
e------------------------------------------------------------/
b-----------------------------------------------------------/
g----------------------------------------------------------/ x10
d---------------------------------------------------------/
a--------------------------------------------------------/
e--9-9-9-9-----7-7-7-7-----12-12-12-12-----11-11-11-11--/

_____________Bass____________
g---------------------------/
d--------------------------/ x10
a-------------------------/
e-9-9--7-7--12-12--11-11-/

note: this song is not close to finished and does not have lyrics placed in
copyright: written by waters/fisher/jones
Tap to rate this tab
 
# A B C D E F G H I J K L M N O P Q R S T U V W X Y Z