Song name
# A B C D E F G H I J K L M N O P Q R S T U V W X Y Z

Misc Unsigned Bands - One Hot Minute - Chapter 1 tab

Intro and verses:

-9----9--------9-----9----(9)--7-----7---------7----7-------|
--10---10-10----10----10--------10----10--10----10---10-----|
----9----9--------9-----9---------9-----9---------9----9----|
------------------------------------------------------------|
------------------------------------------------------------|
------------------------------------------------------------|

-5----5-------5----5--4-------------------------------------|
--5----5-5-----5----------5---5-----5---5-------------------|
---2----2-------2----------5---5-5---5---5------------------|
----------------------------2---2-----2---2-----------------|
------------------------------------------------------------|
------------------------------------------------------------|

Bridge:
I'm not sure of this btw

--2-0-2-4-2-4-5-4-5-7-5--------(2x)--9-7-9-7-5-7-5-4-5------(2x)---|
------------------------5------------------------------5-2---------|
-------------------------------------------------------------------|
-------------------------------------------------------------------|
-------------------------------------------------------------------|
-------------------------------------------------------------------|

If you have remarks, let me know:)
Tap to rate this tab
# A B C D E F G H I J K L M N O P Q R S T U V W X Y Z