Song name
# A B C D E F G H I J K L M N O P Q R S T U V W X Y Z

Misc Unsigned Bands - Artless Rejection - Sunday Morning tab

This is a song that me, Janica, and my friend, Madelaine, made.
She wrote the lyrics and I came up with the tabs.
You're suppose to strum the whole song, but I was too lazy to put it xD
Enjoy! [: ~


[Verse 1]

 "Sunday mornings, everybody gathers at a church in a town, in a country"
|------------------------------------------------------------|
|------------------------------------------------------------|
|-9---------------------------------------5------------------|
|-9---------------------------------------5------------------|
|-7---------------------------------------3------------------|
|------------------------------------------------------------|

 "Somewhere past the highway, cross the intersections"
|------------------------------------------------------------|
|------------------------------------------------------------|
|------------------------------------------------------------|
|-5---------------------------7------------------------------|
|-5---------------------------7------------------------------|
|-3---------------------------5------------------------------|

[Verse 2]

 "Give a me second, the alarm goes off again and again and again"
|------------------------------------------------------------|
|------------------------------------------------------------|
|-9------------------------------------5---------------------|
|-9------------------------------------5---------------------|
|-7------------------------------------3---------------------|
|------------------------------------------------------------|

 "It's having some sort of attack. It's 5 am right here"
|------------------------------------------------------------|
|------------------------------------------------------------|
|------------------------------------------------------------|
|-5--------------------------------7-------------------------|
|-5--------------------------------7-------------------------|
|-3--------------------------------5-------------------------|

[Chorus]

 "But let me slip away slip away slip away to a dream on an island washed up to the shore"
|-x---------------------------------------------------------------------|
|-x---------------------------------------------------------------------|
|-x---------------9-----------------------------------------5-----------|
|-x---------------9-----------------------------------------5-----------|
|-x---------------7-----------------------------------------3-----------|
|-x---------------------------------------------------------------------|

 "Just not in the state, clothes hung on a line to dry in the morning sun"
|-----------------------------------------------------------------------|
|-----------------------------------------------------------------------|
|-------------------------------------------------------------7---------|
|-----------------5-------------------------------------------7---------|
|-----------------5-------------------------------------------5---------|
|-----------------3-----------------------------------------------------|

[Verse 3]

 "My dreams get exciting. Where is the end ? What a shame a shame a shame"
|-----------------------------------------------------------------------|
|-----------------------------------------------------------------------|
|-9-------------------------------------------------5-------------------|
|-9-------------------------------------------------5-------------------|
|-7-------------------------------------------------3-------------------|
|-----------------------------------------------------------------------|

 "So I sit here & drink my coffee, just hot enough to burn my tounge"
|-----------------------------------------------------------------------|
|-----------------------------------------------------------------------|
|-----------------------------------------------------------------------|
|-5--------------------------------7------------------------------------|
|-5--------------------------------7------------------------------------|
|-3--------------------------------5------------------------------------|

[Chorus]

 "But let me slip away slip away slip away to a dream on an island washed up to the shore"
|-x---------------------------------------------------------------------|
|-x---------------------------------------------------------------------|
|-x---------------9-----------------------------------------5-----------|
|-x---------------9-----------------------------------------5-----------|
|-x---------------7-----------------------------------------3-----------|
|-x---------------------------------------------------------------------|

 "Just not in the state, clothes hung on a line to dry in the morning sun"
|-----------------------------------------------------------------------|
|-----------------------------------------------------------------------|
|-------------------------------------------------------------7---------|
|-----------------5-------------------------------------------7---------|
|-----------------5-------------------------------------------5---------|
|-----------------3-----------------------------------------------------|

[Bridge]

 "God send your blessings to the couple in the church"
|------------------------------------------------------------|
|------------------------------------------------------------|
|-9------------------------------5---------------------------|
|-9------------------------------5---------------------------|
|-7------------------------------3---------------------------|
|------------------------------------------------------------|

 "On this lovely morning for their wedding day"
|------------------------------------------------------------|
|------------------------------------------------------------|
|------------------------------------------------------------|
|-5--------------------------------7-------------------------|
|-5--------------------------------7-------------------------|
|-3--------------------------------5-------------------------|

 "Carriage ride & horse drawn sleigh, it's her fairytale come true"
|------------------------------------------------------------|
|------------------------------------------------------------|
|-9-----------------------------------5----------------------|
|-9-----------------------------------5----------------------|
|-7-----------------------------------3----------------------|
|------------------------------------------------------------|

 "The rice throw at the perfect couple. This is the start of something new"
|------------------------------------------------------------|
|------------------------------------------------------------|
|------------------------------------------------------------|
|-5-------------------------------------7--------------------|
|-5-------------------------------------7--------------------|
|-3-------------------------------------5--------------------|

[Chorus] (2x)

 "But let me slip away slip away slip away to a dream on an island washed up to the shore"
|-x---------------------------------------------------------------------|
|-x---------------------------------------------------------------------|
|-x---------------9-----------------------------------------5-----------|
|-x---------------9-----------------------------------------5-----------|
|-x---------------7-----------------------------------------3-----------|
|-x---------------------------------------------------------------------|

 "Just not in the state, clothes hung on a line to dry in the morning sun"
|-----------------------------------------------------------------------|
|-----------------------------------------------------------------------|
|-------------------------------------------------------------7---------|
|-----------------5-------------------------------------------7---------|
|-----------------5-------------------------------------------5---------|
|-----------------3-----------------------------------------------------|

[Ending]

 "Sunday morning has begun"
|---------------------------------|
|---------------------------------|
|---------------------------------|
|---------------------------------|
|---------------------5-----------|
|---------------------5-----------|
|---------------------3-----------|
Tap to rate this tab
# A B C D E F G H I J K L M N O P Q R S T U V W X Y Z