Song name
# A B C D E F G H I J K L M N O P Q R S T U V W X Y Z

Misc Unsigned Bands - Habacuc Martinez - Etude 1 tab

Etude 1
By Habacuc Martinez
Standard Tuning; Moderato
Email: habagrachel@gmail.com

An easy piece I wrote to help develop your finger dexterity,
as well as to help you learn some of the darker chords.
This song is meant for beginners, of course.
This is my very first song, so I am proud of it :-]
(go ahead and play with the speed, but it sounds better fast)

    Am                             
E|--1-----1-----1-----1-----1-----1-----1-----1-----|
B|----2-----2-----2-----2-----2-----2-----2-----2---|
G|------2-----2-----2-----2-----2-----2-----2-----2-|
D|--------------------------0-----------------------|
A|--0-----------------0-----------0-----------------|
E|--------------------------------------------------|
    P

   Dm
|--1-----1-----1-----1-----1-----1-----1-----1-----|
|----3-----3-----3-----3-----3-----3-----3-----3---|
|------2-----2-----2-----2-----2-----2-----2-----2-|
|--0-----------------0-----------0-----0-----0-----|
|--------------------------0-----------------------|
|--------------------------------------------------|
   MP

   Em
|--0-----0-----0-----0-----0-----0-----0-----0-----|
|----0-----0-----0-----0-----0-----0-----0-----0---|
|------0-----0-----0-----0-----0-----0-----0-----0-|
|--2-----------------------2-----------------------|
|--2-----------------2-----------2-----------------|
|--------------------------------------------------|
   MP                C

   B7
|--2-----2-----2-----2-----2-----2-----2-----2-----|
|----0-----0-----0-----0-----0-----0-----0-----0---|
|------2-----2-----2-----2-----2-----2-----2-----2-|
|--------------------------1-----------------------|
|--2-----------------2-----------2-----------------|
|--------------------------------------------------|
   F             D

   Em
|--0-----12-----|
|--0-----12-----|
|--0-----12-----|
|--2------------|
|--2------------|
|--0------------|
   FF    H



Tab Explanation
 ---------------------------------------------
|F~Forte                                      |
|P~Piano                                      |
|C~Crescendo                                  |
|D~Diminuendo                                 |
|H~Harmonics                                  |
|M~An "m" added to a dynamic indicates "mezzo"|
|~~~~~~~~~~~~~~~~~~~~~~~~~~~~~~~~~~~~~~~~~~~~~|
|The tablature is, obviously, in the middle,  |
|between the dynamics and the chord, the chord|
|being on top, the dynamics on bottom.        |
 ---------------------------------------------
Tap to rate this tab
 
# A B C D E F G H I J K L M N O P Q R S T U V W X Y Z