Song name
# A B C D E F G H I J K L M N O P Q R S T U V W X Y Z

Misc Unsigned Bands - Ace Of Spades - Realize tab

Capo on 3rd fret!

Intro:
 C                       Am
|---------------------------------------------|
|------0-0h1----0h1----------0-0h1----0-0h1---|
|-------------0------0--------------2--------0|
|----2-----------------2---2------------------|
|--3---------------------0--------------------|
|---------------------------------------------|
 C                       Am
|-------------------------------------0-------|
|------0-0h1----0h1----------0-0h1------0--0h1|
|-------------0------0--------------2---------|    (you can choose if you
|----2-----------------2---2------------------|     want to play this part 
|--3---------------------0--------------------|     on the verse aswell)
|---------------------------------------------|


Verse 1:
C
I have been waiting and waiting 

Am
For you to come save me, save me

C
Cause I have been wondering, if you're coming,
 
Am
Cause i have been waiting, for too long


Chorus:
F                    Am            G
I have realised that it will never be
F                       Am             G
That it won't work out between you and me
Am        C       G
But it's time to make a move on
Am        C       G                  Am    C  Am  C
And it's time to see .... that it's over


 C                      Am
|---------------------------------------------|
|------0-0h1----0h1----------0-0h1----0-0h1---|
|-------------0------0--------------2--------0|
|----2-----------------2---2------------------|
|--3---------------------0--------------------|
|---------------------------------------------|


 C                       Am 
|-------------------------------------0-------|
|------0-0h1----0h1----------0-0h1------0--0h1|
|-------------0------0--------------2---------|
|----2-----------------2---2------------------|
|--3---------------------0--------------------|
|---------------------------------------------|



Verse 2:
C
Now it's time to realise, realise
Am
That things will not ever be, the same again


Chorus x2 :
F                    Am            G
I have realised that it will never be
F                       Am             G
That it won't work out between you and me
Am        C       G
But it's time to make a move on
Am        C       G                  Am    C  Am  C
And it's time to see .... that it's over

 Am C Am C x4    (fade away)
Tap to rate this tab
# A B C D E F G H I J K L M N O P Q R S T U V W X Y Z