Song name
# A B C D E F G H I J K L M N O P Q R S T U V W X Y Z

Misc Unsigned Bands - Paraless - Year Enders Parody tab

Noob Compo., =P weeeeeeeee



e |----------------------------------------------------------------------------------------------|
B |-----------------1---1h3---1---0---1--------------------------1---1h3---1---0---1-------------|
G |-------------0-----------------------------------------------2--------------------------------|
D |---------2----------------------------------------------2-------------------------------------|
A |----3----------------------------------------------0------------------------------------------|
E |----------------------------------------------------------------------------------------------|


e |----------------------------------------------------------------------------------------------|
B |------------------1---1h3---1---0---1-------------------------3---3h5---3---0---1-------------|
G |--------------2---------------------------------------------5---------------------------------|
D |----------3---------------------------------------------5-------------------------------------|
A |-----3---------------------------------------------3------------------------------------------|
E |----------------------------------------------------------------------------------------------|
Tap to rate this tab
# A B C D E F G H I J K L M N O P Q R S T U V W X Y Z