Song name
# A B C D E F G H I J K L M N O P Q R S T U V W X Y Z

Misc Unsigned Bands - Powerage - Chaos Within Me tab

Powerage 
Chaos Within Me
Composer:Matt Garaghty
Tuning:Standard
key:
~=vibrrato
^=bend
x=muted note
p=pull-off
h=hammer-on
_=tremolo picking

              Intro
e|-----------------------------------------------------|
b|-----------------------------------------------------|
g|-----------------------------------------------------|
d|-----------------------------------------------------|
a|8-10-5-7-8-7-8-10-5-7-8-7-8-8-10-7-5-7-3-8-10-7-5-7-3|
e|8-10-5-7-8-7-8-10-5-7-8-7-8-8-10-7-5-7-3-8-10-7-5-7-3|
          Riff 1        gtr2       ~~~~~~~~~
e|-----------------------------------------------------|
b|-----------------------------------------------------|
g|-----------------------------------------------------|
d|-----------------------------------------------------|
a|3-3-3-3-5-5-5-5-7-7-7-7-9-9-9-9-12-------------------|
e|3-3-3-3-5-5-5-5-7-7-7-7-9-9-9-9-10-------------------|
 |                      gtr1        ~~~~~~~~~
e|-----------------------------------------------------|
b|--------------------------------12-------------------|
g|------------------------6-7-8-9-11-------------------|
d|----------------5-6-7-8------------------------------|
a|--------4-5-6-7--------------------------------------|
e|3-4-5-6----------------------------------------------|
          Riff 2   gtr 2
e|---------------------------------|
b|---------------------------------|
g|---------------------------------|
d|---------------------------------|
a|9-9-9-9-7-7-7-7-5-5-5-5-3-3-3-3-2|
e|9-9-9-9-7-7-7-7-5-5-5-5-3-3-3-3-0|
 |                 gtr 1
e|---------------------------------|
b|---------------------------------|
g|9-8-7-6--------------------------|
d|--------8-7-6-5------------------|
a|----------------7-6-5-4---------2|
e|------------------------6-5-4-3-0|

           Verse rthym 2  || Fill 1  
e|------------------------||9-7----------|
b|------------------------||----8-7------|
g|----------4-----------4-||--------9-7h8|
d|4xx4xx4xx44-4xx4xx4xx44-||-------------|
a|4xx4xx4xx4--4xx4xx4xx4--||-------------|
e|2xx2xx2xx2--2xx2xx2xx2--||-------------|
            
e|--------------------------------------------------------|
b|--------------------------------------------------------|
g|--------------------------------------------------------|
d|--------------------------------------------------------|
a|--------------------------------------------------------|
e|--------------------------------------------------------|
 What would you do if everything, came tumbling down on you
 How would you feel, if its your life I steal
 Would you cry if I die
 When the sky starts to thunder, youll be 6 feet under

          Chorus
e|-------------------------------------------------------------|
b|-------------------------------------------------------------|
g|-------------------------------------------------------------|
d|-------------------------------------------------------------|
a|9----7----6------5----4-3--2----12---9----7------6--5--3--2--|
e|7----5----4------3----2-1--0----10---7----5------4--3--1--0--|
 When the earth starts to rumble and your life starts to tumble
e|------------------------------------|
b|------------------------------------|
g|------------------------------------|
d|------------------------------------|
a|5--------7------------9-------------|
e|3--------5------------7-------------|
 The Chaos Within me is Released!

             Verse 2
e|---------------------------------------------------------|
b|---------------------------------------------------------|
g|---------------------------------------------------------|
d|---------------------------------------------------------|
a|---------------------------------------------------------|
e|---------------------------------------------------------|
 Should I stay with you, or leave alone
 No ones as crazy as you 
 You really need learn to fend for yourself
 Cause its all for one and one for all

             Interlude X4
e|------------------------------|
b|------------------------------|
g|------------------------------|
d|------------------------------|
a|5---4---3---2---1---0---0---0-|
e|-023-023-023-023-023-023-023--|


           Pt 1 of Solox2 gtr1 with gtr2 playing rthym 2 
                                   Pt 1
e|10-13-12-13-10-13-12-13-10-13-12-13-10-13-12-13-10-14-13-14-10-14-13-14-10-14-13-14|
b|-----------------------------------------------------------------------------------|
g|-----------------------------------------------------------------------------------|
d|-----------------------------------------------------------------------------------|
a|-----------------------------------------------------------------------------------|
e|-----------------------------------------------------------------------------------|
                                               Pt 1          | 
e|10-14-13-14-10-12-11-12-10-12-11-12-10-12-11-12-10-12-11-12|13--1715--13--1715--13-|
b|-----------------------------------------------------------|__--------__--------__-|
g|-----------------------------------------------------------|-----------------------|
d|-----------------------------------------------------------|-----------------------|
a|-----------------------------------------------------------|-----------------------|
e|-----------------------------------------------------------|-----------------------|

e|1715--13--1715--13--1816--13--1816--13--1816--13--1816--13--1614--13--1614--13--161|
b|------__--------__--------__--------__--------__--------__--------__--------__-----|
g|-----------------------------------------------------------------------------------|
d|-----------------------------------------------------------------------------------|
a|-----------------------------------------------------------------------------------|
e|-----------------------------------------------------------------------------------|

e|4--13--1614--13--1614--13--1614--13--1614--13--1614--1714161415141613^^^^^^^^^^----|
b|---__--------__--------__--------__--------__--------------------------------------|
g|-----------------------------------------------------------------------------------|
d|-----------------------------------------------------------------------------------|
a|-----------------------------------------------------------------------------------|
e|-----------------------------------------------------------------------------------|

       Ending
e|------------|
b|------------|
g|-----2-2---2|
d|-----2-2---2|
a|-----0-0---0|
e|00-3-----3--|

ORDER:
INTRO
RIFF 1
VERSE 1
CHORUS
VERSE 2
CHORUS
RIFF 2
INTERLUDE
SOLO
INTRO with fill one at the end
CHORUS X2  second time let voice ring
Ending
Tap to rate this tab
 
# A B C D E F G H I J K L M N O P Q R S T U V W X Y Z