Song name
# A B C D E F G H I J K L M N O P Q R S T U V W X Y Z

Misc Unsigned Bands - Powerage - The Nameless tab

Powerage
The Nameless
Composer:Matt 
Tuning:Standard
Key:
~=vibrato
^=bend
x=muted note
/=slide up
\=slide down
*=divebomb


           Intro        gtr 1
e|-------------------------------------------------|
b|-------------------------------------------------|
g|-------------------------------------------------|
d|35--------345--------345--------345--------345^^^|
a|--43---345---43---345---43---345---43---345------|
e|----534--------534--------534--------534---------|
 |                           gtr 2
e|-------------------------------------------789^^^|
b|----------------------------------------789------|
g|-------------------------------------978---------|
d|-------------------------------------------------|
a|-------------------------------------------------|
e|-------------------------------------------------|

                                    Verse 1 
e|----------------3-3-3-----------------------------------------------------------|
b|----------------3-3-3-3-3-3-----------------------------------------------------|
g|--------------2-0-0-0x2-2-2-2---------------------------------------------------|
d|--------------2-0-0-0x0-0-0x2---5--------------------------------------------7--|
a|--------0-3-0-0------------x0-3-5--------------------------------------------7--|
e|0-2-3-4-------------------------3--------------------------------------------5--|
                                What do you do, When theres nothing left for you
e|----------------------------------------------|
b|----------------------------------------------|
g|5-----------------------------------9---------|
d|5-----------------------------------9---------|
a|3-----------------------------------7---------|
e|----------------------------------------------|
  Theres nothing left to say, so find another way                              

        Chorus 1                                  ~~~
e|------------------------------------------------1--|
b|------------------------------------------------2--|
g|------------------------------------------------2--|
d|------------------------------------------------5--|
a|-------------------------------------3^--3-2-0--5--|
e|2-4-7----5---3---0---------------0-0---00-------3--|
 To become one of the  The Nameless
            verse 2
e|----------------3-3-3--------------------------------------------------------|
b|----------------3-3-3-3-3-3--------------------------------------------------|
g|--------------2-0-0-0x2-2-2-2------------------------------------------------|
d|--------------2-0-0-0x0-0-0x2---5---------------------------------------7----|
a|--------0-3-0-0------------x0-3-5---------------------------------------7----|
e|0-2-3-4-------------------------3---------------------------------------5----|
                                  How do you feel, When someones life you steel
e|--------------------------------------------|
b|--------------------------------------------|
g|5----------------------------------9--------|
d|5----------------------------------9--------|
a|3----------------------------------7--------|
e|--------------------------------------------|
  Do you really want to mess with me cause im

              Chorus 2
e|----------------------|
b|----------------------|
g|----------------------|
d|----------------------|
a|----------------------|
e|2--4----7---5---3---0-|
 Now one of the nameless
    
        Interlude x4 
      ~~       
e|-----------------|
b|-----------------|
g|9--7--5-4-2-9----|
d|9--7--5-4-2-9----|
a|7--5--3-2-0-7----|
e|-----------------|

         Solo  ~~~~           -_-_-_--_--__--__--__--__--
e|--------324--------------4--768798109111012111312141314------------|
b|-----342---45-----7----54------------------------------13--------14|
g|----3------------6-7--5----------------------------------14----13--|
d|2h4--------------------------------------------------------1314----|
a|-------------------------------------------------------------------|
e|-------------------------------------------------------------------|
                                                                ~~~~~
e|1315------------1412------------1312------------1312---------------|
b|----14--------15----13--------12----13--------12----13-------------|
g|------15----14--------12----13--------12----13--------12^^/20^-----|
d|--------1415------------1312------------1312-----------------------|
a|-------------------------------------------------------------------|
e|-------------------------------------------------------------------|
                                          ~~                ~~~~
e|--------------------191817-201917-212017--2017191718171916---------|
b|191817-201917-212017-----------------------------------------------|
g|-------------------------------------------------------------------|
d|-------------------------------------------------------------------|
a|-------------------------------------------------------------------|
e|-------------------------------------------------------------------|
  
            Chorus 3
e|------------------------------------------------------------------------|
b|------------------------------------------------------------------------|
g|------------------------------------------------------------------------|
d|---------------------------------------------------------------------5-/|
a|----------------------------------------------3---3-2-0-----3---3-2-05-/|
e|2--4----7--2--4----7--2--4----7---5---3---0-0---00------0-0---00-----3-/|   
 Now one of now one of now one of the nameless

      End Solo 

    gtr 1&2   W/Chorus Pedal
e|0-5-8-0-5-8-0-5-8-0-5-8-0-4-7-0-4-7-0-4-7-0-4-7-0-3-6-0-3-6-0-3-6-0-3-6|
b|-----------------------------------------------------------------------|
g|-----------------------------------------------------------------------|
d|-----------------------------------------------------------------------|
a|-----------------------------------------------------------------------|
e|-----------------------------------------------------------------------|
                          |rb          gtr 1  gtr 2 keeps solo pt 1 going   rb           
e|0-2-5-0-2-5-0-2-5-0-2-5--10^-8------------------------------------------------|
b|-------------------------------10-8---10^-8-----------------------------------|
g|--------------------------------------------9-8-----------------------14-13^--|
d|-------------------------------------------------7-6------------14-16---------|
a|-----------------------------------------------------7-6----------------------|
e|---------------------------------------------------------7-6\2----------------|
            rb                                                      ~~~~~~~
e|----------------------------------------------13-14-16-15-16-17-19--------|
b|-------14-13^---------------13h14----13-14-16-----------------------------|
g|----------------------14-13-------15--------------------------------------|
d|-14-16----------14-16-----------------------------------------------------|
a|--------------------------------------------------------------------------|
e|--------------------------------------------------------------------------|
        gtr 1&2  single notes           
e|-----------------------------|
b|--543---543------------------|
g|-----543---------------------|
d|--------654------------------|
a|-----------432---------------|
e|--------------654^^^--/9\1*/9|
          outro
e|79--------789--------789--------789--------789|gtr2-e
b|--87---789---87---789---87---789---87---789---|gtr2-b
g|----978--------978--------978--------978------|gtr2-g
d|35--------345--------345--------345--------345|gtr1-d
a|--43---345---43---345---43---345---43---345---|gtr1-a
e|----534--------534--------534--------534------|gtr1-e
 outro (continued) gtr 1
e|------453|
b|---345---|
g|345------|
d|---------|
a|---------|
e|---------|
 outro (continued) gtr 2
e|---------|
b|789------|
g|---789---|
d|------897|
a|---------|
e|---------|
 

ORDER:
INTRO
VERSE1
CHORUS1 
VERSE2
CHORUS2
INTERLUDE
SOLO
CHORUS3
END SOLO
OUTRO
Tap to rate this tab
 
# A B C D E F G H I J K L M N O P Q R S T U V W X Y Z