Song name
# A B C D E F G H I J K L M N O P Q R S T U V W X Y Z

Misc Unsigned Bands - One Morning Left - Bd L3ftoverz tab

BD_L3FTOVERZ
Tuning: C#


For Breakdowns 2&3 the t denotes triplets. Listen to the song to fully understand 
what I mean there.
This may not be 100% correct, but it seems to be pretty much there.



Intro:
|--------------------------|
|--------------------------|
|--------------------------|
|-10--10-8--8-10-12--10-8~-|
|-10--10-8--8-10-12--10-8~-|
|-10--10-8--8-10-12--10-8~-|



Verse:
|----------------|-------------|-----------------------------------|--|-------------|
|----------------|-------------|-----------------------------------|--|-------------|
|-7~-6/3~-3\4\7~-|-------------|-----------------------------------|--|-------------|
|-x--x/x--x\x\x--|-000-000-000-|-000-000-----7107-000-000----------|--|-------------|
|-5~-4/1~-1\4\5~-|-000-000-000-|-000-000-787------000-000-7107-474-|--|-10~-787~-4~-|
|----------------|-000-000-000-|-000-000----------000-000----------|x4|-------------|
                   ... ... ...   ... ...          ... ...



Breakdown:
|-------------------------------------------------------------------------------|
|--------6-------------------6-------------------6-------------------6----------|
|--------9-------------------9-------------------9-------------------9----------|
|-0----0---00-000000--0----0---00-0000-0--0----0---00-000000--0----0---00-00-00-|
|-0----0---00-000000--0----0---00-0000-0--0----0---00-000000--0----0---00-00-00-|
|-0-5b-0---00-000000--0-5b-0---00-0000-0--0-5b-0---00-000000--0-5b-0---00-00-00-|
           .. ......           .. .... .           .. ......           .. .. ..



Synth Interlude: Couldnt figure anything out here.



Breakdown2:
|----|-------------|
|----|-------------|
|----|-------------|
|-00-|-000-000-000-|
|-00-|-000-000-000-|
|-00-|-000-000-000-| x8
  ..   ... ... ...
           ttt ttt



Verse2:
|------------------x4-----------------|----|----------x4---------|---x2--|
|-------------------------------------|----|---------------------|-------|
|-------------------------------------|----|-7-77-77-6-3-33-33-6-|-------|
|-88888888-33333333-55555555-00000000-|-0~-|-7-77-77-6-3-33-33-6-|-00-0~-|
|-88888888-33333333-55555555-00000000-|-0~-|-5-55-55-4-1-11-11-4-|-00-0~-|
|-88888888-33333333-55555555-00000000-|-0~-|---------------------|-00-0~-|
                                                                   ..



Breakdown3:
|----------------------------------------------------------------|
|----------------------------------------------------------------|
|----------------------------------------------------------------|
|-0-0-0-|-000-000-000-000-00-000-000-1-0-00-000-000-000-----3-2b-|
|-0-0-0-|-000-000-000-000-00-000-000-1-0-00-000-000-000-5-1------|
|-0-0-0-|-000-000-000-000-00-000-000-1-0-00-000-000-000----------| x3
  . . .   ... ... ... ... .. ... ...     .. ... ... ...
          ttt     ttt ttt        ttt            ttt ttt



Outro Pt1:
|-------------------------------------|
|-------------------------------------|
|-------------------------------------|
|-88888888-33333333-55555555-00000000-|
|-88888888-33333333-55555555-00000000-|
|-88888888-33333333-55555555-00000000-| x4




Outro Pt2:
|--------------------------------------------|
|--------------------------------------------|
|--------------------------------------------|
|-00-0-00000-35-0-00000-35-0-00000-35-000000-|
|-00-0-00000-35-0-00000-35-0-00000-35-000000-|
|-00-0-00000-35-0-00000-35-0-00000-35-000000-|
  .. . .....    . .....    . .....    ......
Tap to rate this tab
# A B C D E F G H I J K L M N O P Q R S T U V W X Y Z