Song name
# A B C D E F G H I J K L M N O P Q R S T U V W X Y Z

Misc Unsigned Bands - Nick Mulvey - All The Things You Are Not Yet tab

You can find this fantastically cute song on YouTube here:

http://www.youtube.com/watch?v=EnH7nF_zvoA

The picture quality isn't very good so I can't see what he is doing exactly,
but I tried my best and did it by ear! Not a very well known song, but if 
you do stumble accross this tab then suggestions to improve it are welcome!

CAPO 3.
Notes relative to capo.

INTRO
Play 4 times:

E|-----------5--7--5--3--0--3--|
B|--------2--5--5--5--3--0--3--|
G|---2----2--5--5--5--3--0--3--|
D|---2----2--5-----------------|
A|---2--3----------------------|
E|-3---------------------------|

VERSE
Repeat. In certain parts he just plays the first couple of notes and doesn't do the whole melody,
but just follow the song to figure it out,it's not hard!

E|---------------------5--7--5--3--0--3--|
B|-------2----------2--5--5--5--3--0--3--|
G|---2---2------2---2--5--5--5--3--0--3--|
D|---2---2------2---2--5-----------------|
A|---2--3---0---2--3---------------------|
E|-3-----------3-------------------------|
         Well I wonder where to begin...


Etc, etc...

Hope you all enjoy this tab, it's a great little tune :)

Comments/Suggestions welcome!
Tap to rate this tab
# A B C D E F G H I J K L M N O P Q R S T U V W X Y Z