Song name
# A B C D E F G H I J K L M N O P Q R S T U V W X Y Z

Misc Unsigned Bands - Wesley Aguilar - Pass Me By tab

PASS ME BY
By Wesley Aguilar 

Tabbed by youtube.com/user/martialartsg

Add your little spin on it

Capo 3
Standard tuning

Intro
E-----2-0----------------0-------0h2----0---x--------0-2--|
B-----2-1--3--------3-3---3-----3---0-3--3--x---2-4-------|
G---2---2---2-----0---0----0----------0-----x---2-2-------|
D-0-----0----0--4-----4---------------------x---2-4-------|
A---------------------0---------------------x-----2-------|
E---------------0--------------3------3-----x--2----------|


E-3--3--3-3--x-----------|
B-3--3--3-3--x---2/3--3--|
G-0--0--0-0--x---0----0--|
D------------x---3/4--2--|
A------------x---0----0--|
E-0-----0----x-0---------|


Verse: G A F#m Bm

E---3--x-----x----------x-----x-----|     
B---3--x--2--x----------x--3-x--3--|
G---0--x--2--x-------2--x--2-x--2--|
D------x--2--x-------2--x--0-x--0--| x3
A------x--0--x--0-------x--2-x--2--|
E-3----x-----x-----2----x-----x-----|

Little thing at the end of the verse. Prechorus?

E----------------------x-------x--5------5-----|
B-----------------2/3-x--3-3--x--3--3----3----|
G--------4--------0----x--0-0--x-4------------|
D-------4--4------3/4-x--2-2--x--2------------| 
A-0----5----5---0------x--0----x-0---0-----0--|
E---2/4------4---------x-------x---------------|

Chorus


E-----2-0----------------0----|
B-----2-1--3--------3-3---3---|
G---2---2---2-----0---0----0--|x4
D-0-----0----0--4-----4-------|
A---------------------0-------|
E---------------0-------------|
Intro x1

Go back to verse

Go to chorus

Intro x1

Bridge. Listen to the song for timing

E----x-----x-----x-----x-----x--2--x-----x-----x-----x-----x----------|
B-5--x--2--x--3--x--3--x--1--x--1--x--3--x--3--x--2--x--2-x---2/3--3-|
G-4--x--3--x--2--x--2--x--2--x--2--x--2--x--2--x--2--x--2-x---0----0-|
D-5--x--2--x--4--x--4--x--0--x-----x--4--x--4--x--2--x--2--x---3/4--2-|
A-4--x-----x--2--x--2--x--3--x-----x--2--x--2--x-----x-----x--0-----0-|
E----x--2--x-----x-----x-----x-----x-----x-----x--2--x--2-x----------|

Intro/solo?

Chorus

Outro=intro
Tap to rate this tab
# A B C D E F G H I J K L M N O P Q R S T U V W X Y Z