Song name
# A B C D E F G H I J K L M N O P Q R S T U V W X Y Z

Misc Unsigned Bands - Alessio Caraturo - Goldrake tab

#----------------------------------PLEASE NOTE---------------------------------#
#This file is the author's own work and represents his interpretation of the   #
#song. You may only use this file for private study, scholarship, or research. #
#------------------------------------------------------------------------------#

          	GUITAR TAB for "Goldrake"(Alessio Caraturo)
          Tabbed by Mario Carlo Pittalis (mariocarlo2000@hotmail.com)



Intro

E|-------------------|-------------------|--------------------|----------0---------|
B|-----3---3---3---3-|-----3---3---3---3-|------3---3---3---3-|------3-------------|
G|---2---2---2---2---|---1---1---1---1---|1h2-2---2---2---2---|2p1-1---1-----------|
D|0------------------|0------------------|0-------------------|0-------------------|
A|-------------------|-------------------|--------------------|--------------------|
E|-------------------|-------------------|--------------------|--------------------|



Part I

E|---------------------------|-------------------------0-|
B|------3-----3------3-----3-|------3-----3------3-------|
G|----2-----2------2-----2---|----2-----2------2-----2---|
D|--0-----0------0-----0-----|--0-----0------0-----0-----|
A|---------------------------|---------------------------|
E|2------------2-------------|3------------3-------------|

E|---------------------------|---------------------------|
B|------3-----3------3-----3-|------3-----3------3-----3-|
G|----2-----2------2-----2---|----2-----2------2-----2---|
D|--0-----0------0-----0-----|--0-----0------0-----0-----|
A|---------------------------|---------------------------|
E|2------------2-------------|3------------3-------------|

E|---------------------------|---------------------------|
B|3---3---2------------------|0--2----3----3-------------|
G|2--2---2-------------------|0--2--2-0---2--------------|
D|2-2---2--------------------|0--2-2--0--0---------------|
A|0----0---------------------|---0-----------------------|
E|---------------------------|3-------3-3----------------|

E|--------------------------------------|---------------------------|
B|----3-----3-----3-----3-----3-------3-|3---3---2------------------|
G|----4-----4-----2-----2-----2-----2---|2--2---2-------------------|
D|--4-----4-----0-----0-----0-----0-----|2-2---2--------------------|
A|2-----2-------------------------------|0----0---------------------|
E|------------2-----2-----3-----3-------|---------------------------|



Part II

E|------0--------------------|3-----2-----0--------------|------0--------------------|
B|3---3---3p2----------------|-0------0-----0---3--2-----|3---3---3p2----------------|
G|--2-----2--4p2-------------|--0------0-----0----0------|--2-----2--4p2-------------|
D|0-------2-----4-0----------|---------------------------|0-------2------------------|
A|--------0------------------|---------------------------|--------0------4-----------|
E|---------------------------|3--------------------------|---------------------------|

E|---------------------------|
B|0--2-----3---(3)-----------|
G|-------0---(0)-------------|
D|--0--0---(0)---------------|
A|---------------------------|
E|3--------------------------|

E|--------------------------------------|---------------------0-----|
B|----3-----3-----3-----3-----3-------3-|3---3---2----2h3-3--3------|
G|----4-----4-----2-----2-----2-----2---|2--2---2--2--------2-------|
D|--4-----4-----0-----0-----0-----0-----|2-2---2-----2---2-2--------|
A|2-----2-------------------------------|0----0-------0-------0-----|
E|------------2-----2-----3-----3-------|---------------------------|

E|------0--------------------|-----------------0---------|------0--------------------|
B|3---3---3p2----------------|3--3-----3-----3-----------|3---3---3p2----------------|
G|--2-----2--4p2-------------|-------0-----0-------------|--2-----2--4p2-------------|
D|0-------2-----4-0----------|--0--0-----0---------------|0-------2------------------|
A|--------0------------------|---------------------------|--------0------4-----------|
E|---------------------------|3--------------------------|---------------------------|

E|---------------------------|---------------------------|
B|0----2----3----3-----------|0--2-----3---3---(3)-------|
G|---0----0----0-------------|-------0---0---(0)---------|
D|-0----0----0---------------|--0--0---0---(0)-----------|
A|---------------------------|---------------------------|
E|3--------------------------|3--------------------------|



Part I

E|---------------------------|-------------------------0-|
B|------3-----3------3-----3-|------3-----3------3-------|
G|----2-----2------2-----2---|----2-----2------2-----2---|
D|--0-----0------0-----0-----|--0-----0------0-----0-----|
A|---------------------------|---------------------------|
E|2------------2-------------|3------------3-------------|

E|---------------------------|---------------------------|
B|------3-----3------3-----3-|------3-----3------3-----3-|
G|----2-----2------2-----2---|----2-----2------2-----2---|
D|--0-----0------0-----0-----|--0-----0------0-----0-----|
A|---------------------------|---------------------------|
E|2------------2-------------|3------------3-------------|

E|---------------------------|---------------------------|
B|3---3---2------------------|0--2----3----3-------------|
G|2--2---2-------------------|0--2--2-0---2--------------|
D|2-2---2--------------------|0--2-2--0--0---------------|
A|0----0---------------------|---0-----------------------|
E|---------------------------|3-------3-3----------------|

E|--------------------------------------|---------------------0-----|
B|----3-----3-----3-----3-----3-------3-|3---3---2----2h3-3--3------|
G|----4-----4-----2-----2-----2-----2---|2--2---2--2--------2-------|
D|--4-----4-----0-----0-----0-----0-----|2-2---2-----2---2----------|
A|2-----2-------------------------------|0----0-------0-------------|
E|------------2-----2-----3-----3-------|---------------------------|



Parte II

E|------0--------------------|3-----2-----0--------------|------0--------------------|
B|3---3---3p2----------------|-0------0-----0---3--2-----|3---3---3p2----------------|
G|--2-----2--4p2-------------|--0------0-----0----0------|--2-----2--4p2-------------|
D|0-------2-----4-0----------|---------------------------|0-------2------------------|
A|--------0------------------|---------------------------|--------0------4-----------|
E|---------------------------|3--------------------------|---------------------------|

E|---------------------------|
B|0--2-----3---(3)-----------|
G|-------0---(0)-------------|
D|--0--0---(0)---------------|
A|---------------------------|
E|3--------------------------|

E|--------------------------------------|---------------------------|
B|----3-----3-----3-----3-----3-------3-|3---3---2------------------|
G|----4-----4-----2-----2-----2-----2---|2--2---2-------------------|
D|--4-----4-----0-----0-----0-----0-----|2-2---2--------------------|
A|2-----2-------------------------------|0----0---------------------|
E|------------2-----2-----3-----3-------|---------------------------|



Final Part

E|-------------------|----------------------|-----------------------|-----------------|
B|3---3----3----3--3-|3-----3----3----3--3--|3-----3----3----3----3-|------3----3---3-|
G|2-2----2----2----2-|1---1----1----1----1--|1h2-2----2----2----2---|2p1-1----1-----2-|
D|0----0----0----0---|0-0----0----0----0----|0------0----0----0-----|0--------------0-|
A|-------------------|----------------------|-----------------------|-----------------|
E|-------------------|----------------------|-----------------------|-----------------|

Tap to rate this tab
 
# A B C D E F G H I J K L M N O P Q R S T U V W X Y Z