Song name
# A B C D E F G H I J K L M N O P Q R S T U V W X Y Z

Misc Unsigned Bands - Beat Beat Beat - We Are Waves tab

-----------------------------------------------------------------


          We are Waves - Beat! Beat! Beat!

                                                     Tabs by Kuki/juluk
-----------------------------------------------------------------

BASS FOR GUITAR
e|------------------------------------------|
B|------------------------------------------|
G|------------------------------------------|
D|---------------------5-5-5-4-4-2-2-2-2----|
A|---3-3-3-3-3-5-5-5-5----------------------|
E|------------------------------------------|

Verse
e|---3-----7-----2-----0------|
B|---0-----8-----3-----0------|   
G|----------------------------|
D|----------------------------|
A|----------------------------|
E|----------------------------|

Pre Chorus
e|-----------------------------------------|
B|---------3-------------------------------|
G|---4-4-4---4-------4---------------------|
D|-------------5-5-5---5-7-7-7-7-5-5-5-5---|
A|-----------------------------------------|
E|-----------------------------------------|

Chorus
e|---7-7-10-10-10-7-7-10-10-10-5-5-5-5-5---|
B|-----------------------------------------|
G|-----------------------------------------|
D|-----------------------------------------|
A|-----------------------------------------|
E|-----------------------------------------|
Tap to rate this tab
# A B C D E F G H I J K L M N O P Q R S T U V W X Y Z