Song name
# A B C D E F G H I J K L M N O P Q R S T U V W X Y Z

Misc Unsigned Bands - Brad Doggett - Some Of Your Love tab

Some of Your Love Tab by Brad Doggett

(Hey everyone, this is my first tab. I hope you enjoy playing it as much as i do.
This tab is solely based on Brad's YouTube version.... Good Luck!)

Capo 3

Chords:
D2/F#: 200230 Asus2:  002200
D/G:   300230 Gb5:   (10)900(10)x
A7/G:  302030 Dsus2:  000230
Esus7: 020230 G5:     300032
Bm7:   x24232 C2:     870080
Dmaj7: x57675 Em7:    x70780
Gmaj7: 300033 A7sus4: 002030

Intro:
   D2/F#          D/G         A7/G        Dsus2       Esus7         D2/F#    D/G
e-x-----------x-----------x-----------x---0h2p0---x-----------x-----------x-----|
B-x---------3-x---------3-x---------3-x---3-----3-x---------3-x---------3-x--3--|
G-x-------2---x-------2---x-------0---x-----------x-------2---x-------2---x--2--|
D-x-----0-----x-----0-----x-----2-----x-----------x-----0-----x-----0-----x-----|
A-x-0-0-------x-0---------x-0---------x-----------x-0---------x-0---------x-----|
E-x-----------x---3-------x---3-------x-3---------x---0-------x---3-------x--3--|

Intro pt. 2:
      Bm7      Dmaj7    Gmaj7     Dsus2  Asus2
e-2---2222222--5555555--33333333--00000--00000--|
B-2h3-3333333--5557777--33333333--33333--00000--|
G-2---2222444--7776666--00000000--22222--22222--|  x2
D-2h4-4444444--7777777--00000000--00000--22222--|
A-2---2222222--5555555--00000000--00000--00000--|
E-0---0000000--0000000--33333333--00000--00000--|

Verse 1: (chords are the same as intro pt. 2)
Bm7                           Dmaj7
  I guess I've known you for awhile
         Gmaj7               Dsus2             Asus2
But ever since I can remember, been leaning in your direction
Bm7                           Dmaj7
  But I've never crossed that line
          Gmaj7                    Dsus2                 Asus2
Afraid of what might be the answer, could have missed my chance cause I think

Pre-Chorus 1:
Esus7  D2/F#            D/G  Gmaj7
Maybe it's been way too long
Esus7       D2/F#             D/G   Gmaj7
And I think this may come out wrong
Esus7       D2/F#               D/G
But I can't do this friend thing anymore

Chorus 1:
   D2/F#          D/G         A7/G        Dsus2       Esus7         D2/F#    D/G        Dsus2
e-x-----------x-----------x-----------x---0h2p0---x-----------x-----------x-----------x---0h2p0---|
B-x---------3-x---------3-x---------3-x---3-----3-x---------3-x---------3-x---------3-x---3-----3-|
G-x-------2---x-------2---x-------0---x-----------x-------2---x-------2---x-------2---x-----------|
D-x-----0-----x-----0-----x-----2-----x-----------x-----0-----x-----0-----x-----0-----x-----------|
A-x-0-0-------x-0---------x-0---------x-----------x-0---------x-0---------x-0---------x-----------|
E-x-----------x---3-------x---3-------x-3---------x---0-------x---3-------x---3-------x-3---------|
          Cause now I've got nothing at all left to give you        except for my love, 
baby
   D2/F#        D/G         A7/G        Dsus2
e-x-----------x-----------x-----------x-0--|
B-x---------3-x---------3-x---------3-x-3--|
G-x-------2---x-------2---x-------0---x-2--|
D-x-----0-----x-----0-----x-----2-----x-0--|
A-x-0-0-------x-0---------x-0---------x-0--|
E-x-----------x---3-------x---3-------x-0--|
  And now all I want is to have some of your

Gmaj7      Esus7 D2/F# Dsus2(hammer-on)
Love, love baby yeah, yeah
             Gmaj7      Esus7 D2/F# Dsus2(hammer-on)
Some of your love, love baby yeah, yeah
             Gmaj7 Esus7              D2/F# Dsus2(hammer-on)
Some of your love,    oh some of your love
             Gmaj7      Esus7 D2/F# Dsus2(hammer-on)
Some of your love, love baby yeah, yeah

Break:
      Bm7      Dmaj7    Gmaj7     Dsus2  Asus2
e-2---2222222--5555555--33333333--00000--00000--|
B-2h3-3333333--5557777--33333333--33333--00000--|
G-2---2222444--7776666--00000000--22222--22222--|
D-2h4-4444444--7777777--00000000--00000--22222--|
A-2---2222222--5555555--00000000--00000--00000--|
E-0---0000000--0000000--33333333--00000--00000--|

Verse 2:
Bm7                         Dmaj7
  I love the inside of your house
            Gmaj7               Dsus2 Asus2         Bm7
And all the things we talk about but when we joke around
  Dmaj7                Gmaj7               Dsus2  Asus2
I get caught up in the things you say to me every time

Pre-Chorus 2:
     Esus7      D2/F#           D/G  Gmaj7
Cause I've been waiting way too long
Esus7      D2/F#              D/G   Gmaj7
And I think this may come out wrong
Esus7       D2/F#                D/G
But I won't do this friend thing anymore

Chorus 1:
   D2/F#          D/G         A7/G        Dsus2       Esus7         D2/F#    D/G        Dsus2
e-x-----------x-----------x-----------x---0h2p0---x-----------x-----------x-----------x---0h2p0---|
B-x---------3-x---------3-x---------3-x---3-----3-x---------3-x---------3-x---------3-x---3-----3-|
G-x-------2---x-------2---x-------0---x-----------x-------2---x-------2---x-------2---x-----------|
D-x-----0-----x-----0-----x-----2-----x-----------x-----0-----x-----0-----x-----0-----x-----------|
A-x-0-0-------x-0---------x-0---------x-----------x-0---------x-0---------x-0---------x-----------|
E-x-----------x---3-------x---3-------x-3---------x---0-------x---3-------x---3-------x-3---------|
          Cause now I've got nothing at all left to give you        except for my love, 
baby
   D2/F#        D/G         A7/G        Dsus2
e-x-----------x-----------x-----------x-0--|
B-x---------3-x---------3-x---------3-x-3--|
G-x-------2---x-------2---x-------0---x-2--|
D-x-----0-----x-----0-----x-----2-----x-0--|
A-x-0-0-------x-0---------x-0---------x-0--|
E-x-----------x---3-------x---3-------x-0--|
  And now all I want is to have some of your

Gmaj7      Esus7 D2/F# Dsus2(hammer-on)
Love, love baby yeah, yeah
             Gmaj7      Esus7 D2/F# Dsus2(hammer-on)
Some of your love, love baby yeah, yeah
             Gmaj7 Esus7              D2/F# Dsus2(hammer-on)
Some of your love,    oh some of your love
             Gmaj7      Esus7 D2/F# Dsus2(hammer-on)
Some of your love, love baby yeah, yeah

Bridge:

Gb5 Gmaj7 G5 Gmaj7 G5 x2

       Gb5
And if this doesn't work
      Gmaj7       G5       Gmaj7       G5
Oh at least I tried, oh at least I tried
       Gb5                                         Gmaj7    G5  Gmaj7  G5
But if what I'm saying sounds like an ultimatum I apologize
    Gb5                              Gmaj7 G5               Gmaj7 G5
But I just want to know if you'll be mine      if youll be mine
    Gb5                                  Gmaj7 G5   Gmaj7 G5
And I'll find out one way or another one way or another

Verse 3:
   D2/F#  D/G              Dsus2   Asus2
 e------x-----------------------x--------0---------|
 B----3-x-3-3-------3---------3-x--0-0---0----0----|
 G----2-x-2-2------2--2-------2-x--2-2---2----2----|
 D---0--x---------0-----0----0--x--------2---------|
 A------x--------0---------0----x--0---0-0--0------|
 E-2----x-3---3-3---------------x------------------|
But I don't mean         to come off rude but I think you'd be
   D2/F#   D/G              Dsus2   Asus2
 e-------x-----------------------x--------0---------|
 B-----3-x-3-3-------3---------3-x--0-0---0----0----|
 G----2--x-2-2------2--2-------2-x--2-2---2----2----|
 D---0---x---------0-----0----0--x--------2---------|
 A-------x--------0---------0----x--0---0-0--0------|
 E-2-----x-3---3-3---------------x------------------|
     Better off with me    yeah
   D2/F#   D/G              Dsus2   Asus2
 e-------x-----------------------x--------0---------|
 B-----3-x-3-3-------3---------3-x--0-0---0----0----|
 G----2--x-2-2------2--2-------2-x--2-2---2----2----|
 D---0---x---------0-----0----0--x--------2---------|
 A-------x--------0---------0----x--0---0-0--0------|
 E-2-----x-3---3-3---------------x------------------|
    So what do we got to lose, its bout time we use the time we've
    C2                     Em7                 A7sus4 C
 e--xxxxxxxxx--------------xxxxxxxxx-----------000----0---0-0---0-----|
 B--888888888--------------888888888-----------333----1---1-1---1-----|
 G--000000000--------------777777777-----------000----0---0-0---0-----|
 D--000000000--------------000000000-----------222----0---0-0h2-0h2---|
 A--777777777--------------777777777-----------000----2h3-3-3---3-----|
 E--888888888--------------000000000-----------000----0---0-0---0-----|
    got  cause I can't get by     without your love

Chorus 3:
   D2/F# D/G           Esus7   Dsus2                  Dsus2
e------x-----------------------x---0h2p0---x---      ----0h2p0---0h2--|
B--3-3-x-3-------3-----------3-x---3-----3-x---      ----3-----3------|
G--2-2-x-2------2--2-------2---x-----------x---  x4  -----------------| (Play the last time)
D------x-------0-----0---0-----x-0---------x---      --0--------------|
A------x------0--------2-------x-----------x---      -----------------|
E--2-2-x-3-3-3-----------------x-----------x---      -----------------|
Oh some of your love
Some of your love, love baby
Some of your love, oh some of your love
Some of your love, love baby yeah, yeah
Tap to rate this tab
 
# A B C D E F G H I J K L M N O P Q R S T U V W X Y Z