Song name
# A B C D E F G H I J K L M N O P Q R S T U V W X Y Z

Misc Unsigned Bands - Deja Entendre - Hello Halo tab

Gtr I (E A D G B E) - 'Untitled'

    Q=100
   3/4                          4/4
    Gtr I
    E E E E E E   E E E E E E    E E E Q  E Q    E E E Q  E E E
||--------------|---------2-3-||-------0-------|-------0--------|-|
||o-0-----0-1-3-|-3-----3-----||-5--------5----|-3--------3-----|-|
||----0---------|---0---------||---0--------0--|---0--------0---|-|
||------0-------|-----0-------||-----0---------|-----0--------0-|-|
||o-------------|-2-----------||-3-------------|-2--------------|-|
||--3-----------|-------------||---------------|----------------|-|


 7/4                         4/4
  E E E Q  E Q  E E E E Q      E E E Q  E Q    E E E Q  E E E
|-------------------0-0----||--------0-------|-------0--------|-|
|-8-----7--8-5------5-5----||--3--------3----|-1--------1-----|-|
|---0-----------0-------0--||----0--------0--|---0--------0---|-|
|-----------------0--------||------0---------|-----0--------0-|-|
|-----7-5----3-------------||--2-------------|-0--------------|-|
|-8------------------------||----------------|----------------|-|


 4/4                                 7/8
  E E E Q  E Q    E E E Q  E Q         E E  E  Q  Q  Q  E E E E
|---------------|----------------||-|---------------------0-----|--|
|---------------|---------------o||-|-12------10-----8------8---|--|
|-----0------0--|-----0------0---||-|----0--------------------0-|--|
|---2------4----|---2------4-----||-|---------------------------|--|
|-3-----5-------|-3-----5-------o||-|------10-----9--7----------|--|
|---------------|----------------||-|--8------10--------0-------|--|


                                                                      D7
                       7/8
  E E E Q Q Q Q E E E   Q E E E Q  Q E Q Q   E E E E E Q E Q E E  Q   H
|---------------0-----|-------3-2--------0-|------------------------|-5----|
|-7-----8---5-----5---|-3----------1-------|------------------------|------|
|---0-----0---0-----0-|---0----------0-----|---------0-----0------5-|-5----|
|-----0---------------|-----0----------0---|-------2-----4-----2----|-4----|
|-5-----7---3---------|-2----------0-------|-0-2-3-----5-----3------|-5----|
|---------------------|--------------------|------------------------|------|


         Q=90
  G       G
 4/4
|-3----|-------|-|
|-3----|-------|-|
|-0----|-------|-|
|-0----|-------|-|
|-2----|-------|-|
|-3----|-------|-|
Tap to rate this tab
# A B C D E F G H I J K L M N O P Q R S T U V W X Y Z