Song name
# A B C D E F G H I J K L M N O P Q R S T U V W X Y Z

Misc Unsigned Bands - Rotten Specimen - Almas Vengaran tab

-------------------------------------------------------------------------
                              ALMAS VENGARAN
                      As recorded by ROTTEN SPECIMEN 
                             (ROTTEN SPECIMEN) 
              *ALL MUSIC PROPERTY OF THEIR RIGHTFULL OWNER*
-------------------------------------------------------------------------
        Music by: BENNY ROTT, RIZZO THE RIPPER, CHRIS BULLET REYES
         Transcribed: by CHRIS BULLET REYES(Batmanc123@gmail.com)
                and BENNY ROTT(RottenSpecimen@gmail.com)



TUNING: Whole Step Down
GTR I:    D G C F A D
GTR II:   D G C F A D



Fast Punk Q=160

BASS INTRO FIRST 4 Bars...

4/4 
  INTRO
   Gtr I       |--Let Ring---------------------------|
|------3--------------------------------------------------|
|------3--------------------------------------------------|
|------x--------8--------5-------7--------8---10---8------|
|------5--------8--------5-------7--------8---10---8------|
|------5--------6--------3-------5--------6----8---6------|
|------3--------------------------------------------------|
|
|  Gtr II      |--Let Ring---------------------------|
|---------------------------------------------------------|
|---------------------------------------------------------|
|---------------8--------5-------7--------8---10---8------|
|------5--------8--------5-------7--------8---10---8------|
|------5--------6--------3-------5--------6----8---6------|
|------3--------------------------------------------------|

      Figure 1
|---------------------------------------------------------|
|---------------------------------------------------------|
|----------------------------8--8-8-------8--8-8----------|
|--5--5-5-------5--5-5-------8--8-8--888--8--8-8--888-----|
|--5--5-5--555--5--5-5-555---6--6-6--666--6--6-6--666-----|
|--3--3-3--333--3--3-3-333---6--6-6--666--6--6-6--666-----|
|
|
|---------------------------------------------------------|
|---------------------------------------------------------|
|----------------------------8--8-8-------8--8-8----------|
|--5--5-5-------5--5-5-------8--8-8--888--8--8-8--888-----|
|--5--5-5--555--5--5-5-555---6--6-6--666--6--6-6--666-----|
|--3--3-3--333--3--3-3-333--------------------------------|

    Figure 2
|---------------------------------------------------------|
|---------------------------------------------------------|
|--5--5-5-------5--5-5-------7--7-7-------8---10----8-----|
|--5--5-5--555--5--5-5-555---7--7-7--777--8---10----8-----|
|--3--3-3--333--3--3-3-333---5--5-5--555--6----8----6-----|
|--3--3-3--333--3--3-3-333---5--5-5--555--6----8----6-----|
|
|
|---------------------------------------------------------|
|---------------------------------------------------------|
|--5--5-5-------5--5-5-------7--7-7-------8---10----8-----|
|--5--5-5--555--5--5-5-555---7--7-7--777--8---10----8-----|
|--3--3-3--333--3--3-3-333---5--5-5--555--6----8----6-----|
|---------------------------------------------------------|

    Figure 3
    |---Palm-Mute------------------------------------------|
||----------------------------------------------------------------------||
||----------------------------------------------------------------------||
||----------------------------------------------------------8---10----8-||
||-5--------------------------------------------------------8---10----8-||2X
||-5---------------6666666666666666333333333333333355555555-6----8----6-||
||-3333333333333333-----------------------------------------6----8----6-||
|
|   |---Palm-Mute------------------------------------------|
||----------------------------------------------------------------------||
||----------------------------------------------------------------------||
||----------------------------------------------------------8---10----8-||
||-5--------------------------------------------------------8---10----8-||2X
||-5---------------6666666666666666333333333333333355555555-6----8----6-||
||-3333333333333333-----------------------------------------------------||


     Figure 4
|---------------------------------------------------------|
|---------------------------------------------------------|
|----------------------------8--8-8-------8--8-8----------|
|--5--5-5-------5--5-5-------8--8-8--888--8--8-8--888-----|
|--5--5-5--555--5--5-5-555---6--6-6--666--6--6-6--666-----|
|--3--3-3--333--3--3-3-333---6--6-6--666--6--6-6--666-----|
|
|
|---------------------------------------------------------|
|---------------------------------------------------------|
|----------------------------8--8-8-------8--8-8----------|
|--5--5-5-------5--5-5-------8--8-8--888--8--8-8--888-----|
|--5--5-5--555--5--5-5-555---6--6-6--666--6--6-6--666-----|
|--3--3-3--333--3--3-3-333--------------------------------|


     Figure 5
|---------------------------------------------------------|
|---------------------------------------------------------|
|---------------------------------------------------------|
|--8--8-8-------8--8-8-------7--7-7--777--7--7-7--777-----|
|--8--8-8--888--8--8-8-888---8--8-8--888--8--8-8--888-----|
|--6--6-6--666--6--6-6-666---5--5-5--555--5--5-5--555-----|
|
|
|---------------------------------------------------------|
|---------------------------------------------------------|
|---------------------------------------------------------|
|--8--8-8-------8--8-8-------7--7-7--777--7--7-7--777-----|
|--8--8-8--888--8--8-8-888---8--8-8--888--8--8-8--888-----|
|--6--6-6--666--6--6-6-666---5--5-5--555--5--5-5--555-----|



     Figure 6
|---------------------------------------------------------|
|---------------------------------------------------------|
|----------------------------8--8-8-------8--8-8----------|
|--5--5-5-------5--5-5-------8--8-8--888--8--8-8--888-----|
|--5--5-5--555--5--5-5-555---6--6-6--666--6--6-6--666-----|
|--3--3-3--333--3--3-3-333---6--6-6--666--6--6-6--666-----|
|
|
|---------------------------------------------------------|
|---------------------------------------------------------|
|----------------------------8--8-8-------8--8-8----------|
|--5--5-5-------5--5-5-------8--8-8--888--8--8-8--888-----|
|--5--5-5--555--5--5-5-555---6--6-6--666--6--6-6--666-----|
|--3--3-3--333--3--3-3-333--------------------------------|



     Figure 7                       |---Let-Ring---------|
|---------------------------------------------------------|
|---------------------------------------------------------|
|---------------------------------------------------------|
|--8--8-8-------8--8-8-------7--7-7--777--7~--------------|
|--8--8-8--888--8--8-8-888---8--8-8--888--8~--------------|
|--6--6-6--666--6--6-6-666---5--5-5--555--5~--------------|
|
|                                   |---Let-Ring---------|
|---------------------------------------------------------|
|---------------------------------------------------------|
|---------------------------------------------------------|
|--8--8-8-------8--8-8-------7--7-7--777--7~--------------|
|--8--8-8--888--8--8-8-888---8--8-8--888--8~--------------|
|--6--6-6--666--6--6-6-666---5--5-5--555--5~--------------|

     Figure 8
  |---Let-Ring-------------------------------------------|
|--3~------|--------------|--------------|-----------------|
|--3~------|--------------|--------------|-----------------|
|--x-------|--------------|--------------|-----------------|
|--5~------|--------------|--------------|-----------------|
|--5~------|--------------|--------------|-----------------|
|--3~------|--------------|--------------|-----------------|
|
|
|----------|--------------|--------------|-----------------|
|----------|--------------|--------------|-----------------|
|----------|--------------|--------------|-----------------|
|--5~------|--------------|--------------|-----------------|
|--5~------|--------------|--------------|-----------------|
|--3~------|--------------|--------------|-----------------|

     Figure 9
       Slide Up Neck
|-------------------------------------------------------|
|-------------------------------------------------------|
|-------------------------------------------------------|
|--5----------------------------------------------------|
|--5--5/------------------------------------------------|
|--3--3/------------------------------------------------|
|
| |-P.M.-|   Slide Down Neck
|-------------------------------------------------------|
|-------------------------------------------------------|
|-------------------------------------------------------|
|------------5\-----------------------------------------|
|--5----5----5\-----------------------------------------|
|--3----3----3\-----------------------------------------|


************************************

| /   slide up
| \   slide down
| h   hammer-on
| p   pull-off
| ~   vibrato
| +   harmonic
| x   Mute note
| b   Bend
| pb  Pre-bend
| br  Bend release
| pbr Pre-bend release
| brb Bend release bend

************************************
Tap to rate this tab
# A B C D E F G H I J K L M N O P Q R S T U V W X Y Z