Song name
# A B C D E F G H I J K L M N O P Q R S T U V W X Y Z

Misc Unsigned Bands - Kumi Tanioka - Clouds Reflected On The River Surface tab

-------------------------------------------------------------------------------
Clouds Reflected on the River Surface (Final Fantasy Crystal Chronicles)
by Kumi Tanioka	     
-------------------------------------------------------------------------------
Tabbed by: Jessica Dinh
Email: sangodinh@yahoo.com

Tuning: Standard

                                            
e|-----2---2-|-----3-0-3-|-------2-------3-0-----2------3-0-----2-------3-0--|
B|-----3---3-|---1-1---1-|-------3-----1-1-------3----1-1-----0-0-0---1-1----|
G|---2-2-2-2-|-----2---2-|-----2-2-2-----2-----2-2-2----2---------------2----|
D|-0---0---0-|-----2---2-|---0---0-------2---0---0------2---------------2----|
A|-----------|-0---0---0-|-0---------0---0-----------0--0---2-------3---0----|
E|-----------|-----------|---------------------------------------------------|

e|-----3-------3---|-------2-------3-0-----2------3-0-----2-------3-0-----3--|
B|---0-3-0---0-0-0-|-------3-----1-1-------3----1-1-----0-0-0---1-1-----0-3-0|      
G|-----0-----------|-----2-2-2-----2-----2-2-2----2---------------2-------0--|
D|-----0---2-------|---0---0-------2---0---0------2---------------2-------0--|
A|-----2-----------|-0---------0---0-----------0--0---2-------3---0-------2--|
E|-3---------------|--------------------------------------------------3------|

e|-----2---|
B|-----3---|
G|---2-2-2-| x2
D|-0---0---|
A|---------|
E|---------|

************************************
Tap to rate this tab
# A B C D E F G H I J K L M N O P Q R S T U V W X Y Z