Song name
# A B C D E F G H I J K L M N O P Q R S T U V W X Y Z

Misc Unsigned Bands - Thomas Holm - Selvmord Paa Dansegulvet tab

Artist: Thomas Holm
Song: Selvmord paa Dansegulvet

tuning: Half step down

Tabs by: stakkelslasse

**READ THIS**
This is NOT with the rythem in!!
This is how the chord-progression goes,
and just listen to the song for rythem 
- itīs very simple - If I tried to write
the rythem, you would just be more confused,
so agian; this i just wich chords he plays 
in the correct order:-)

(To the Danish Crowd:)
**LAES DETTE**
Det her er IKKE med rytmen i!! 
Det her er hvordan akkord-gangen gaar, 
og bare lyt til sangen, for at faa rytmen 
- den er meget simpel - Hvis jeg proevede 
at skrive rytmen, ville det bare forvirre 
mere end at hjaelpe jer, saa igen: 
det her er bare de akkorder han 
spiller i den rigtige raekkefoelge:-)


intro and verse
e||------------------------------------------------------------------------|
B||--------------------------------------****------------------------------|
G||--------------------------------------*x4*------------------------------|
D||-4--7--4--7--------9--4--9------------****------------------------------|
A||-2--5--2--5--5--1--7--2--7----------------------------------------------|
E||-------------3--0-------------------------------------------------------|

build-up
e||------------------------------------------------------------------------|
B||--------------------------------------****------------------------------|
G||--------------------------------------*x1*------------------------------|
D||--------4-----------------------------****------------------------------|
A||--5--4--2--1--5--5--1---------------------------------------------------|
E||--3--2-----0--3--3--0---------------------------------------------------|

Chorus
e||------------------------------------------------------------------------|
B||--------------------------------------****------------------------------|
G||--------------------------------------*x4*------------------------------|
D||-4--7---------------------------------****------------------------------|
A||-2--5--5--4-------------------------------------------------------------|
E||-------3--2-------------------------------------------------------------|

verse
e||------------------------------------------------------------------------|
B||--------------------------------------****------------------------------|
G||--------------------------------------*x2*------------------------------|
D||-4--7--4--7--------9--4--9------------****------------------------------|
A||-2--5--2--5--5--1--7--2--7----------------------------------------------|
E||-------------3--0-------------------------------------------------------|

build-up
e||------------------------------------------------------------------------|
B||--------------------------------------****------------------------------|
G||--------------------------------------*x1*------------------------------|
D||--------4-----------------------------****------------------------------|
A||--5--4--2--1--5--5--1---------------------------------------------------|
E||--3--2-----0--3--3--0---------------------------------------------------|

Chorus
e||------------------------------------------------------------------------|
B||--------------------------------------****------------------------------|
G||--------------------------------------*x3*------------------------------|
D||-4--7---------------------------------****------------------------------|
A||-2--5--5--4-------------------------------------------------------------|
E||-------3--2-------------------------------------------------------------|

"solo thingi-thing"
e||--2--2--3--2------------------------------------------------------------|
B||--3--3--3--2--------------------------****------------------------------|
G||--4--2-----3--------------------------*x4*------------------------------|
D||--4--0-----2--------------------------****------------------------------|
A||--2--0--2--4------------------------------------------------------------|
E||-----2--3--2------------------------------------------------------------|

outro
e||------------------------------------------------------------------------|
B||-------------------------------------****-------------------------------|
G||-------------------------------------*x8*-------------------------------|
D||-4--7--------------------------------****-------------------------------|
A||-2--5--5--4-------------------------------------------------------------|
E||-------3--2-------------------------------------------------------------|

Tap to rate this tab
# A B C D E F G H I J K L M N O P Q R S T U V W X Y Z