Song name
# A B C D E F G H I J K L M N O P Q R S T U V W X Y Z

Misc Unsigned Bands - Long And Forever More - Facing Eternity tab

This is One of our first songs.  IT is called Long and Forever More
Facing Eternity-2010

(intro)
e-----------------------------------------------------------------|
b-----------------------------------------------------------------|
g---------5-------5----------5--------5-----------------5---------|
d----5--------5-----5----5--------5-----5--  4 times----5---------|
a--3---3----3---3------0---0----0---0-------------------3---------|
E-----------------------------------------------------------------|

(Verse)
This is played Rather Slow
e------------------------|
b------------------------|
g---5--------------------|
d---5-X8-5----7-----3----|
a---3----5-X8-7-X8--3-X8-| 2 times
E--------3----5-----1----|

(Chorus)
played basically the same except there is a different strum pattern. Listen closely to 
strum pattern.

e----------------------------|
b----------------------------|
g---5------------------------|
d---5-X8-5----2----3----5----| 4 Times
a---3----5-X8-2-X8-3-X4-5-X4-|
E--------3----0----1----3----|

(Verse)
(Chorus)2 times

(Outro)
Basically like the Chorus Strum Pattern just slightly different Chords

e----------------------------|
b---5------------------------|
g---5-X8-5-------------------|
d---3----5-X8-2----3----5----| 2 Times
a--------3----2-X8-3-X4-5-X4-|
E-------------0----1----3----|

That's Basically it.  When you can listen to it and see if it sounds right.
www.myspace.com/hopelessendeavor123
Tap to rate this tab
 
# A B C D E F G H I J K L M N O P Q R S T U V W X Y Z