Song name
# A B C D E F G H I J K L M N O P Q R S T U V W X Y Z

Misc Unsigned Bands - Mud Stic - Come Together tab

Mud Stic(My Band)
Come Together(my Version similar to Beatles version)
2010


Tuning standered
Capo 1st fret

intro/Shoot me riff
   Em
|---------------------------|
|---------------------------|
|---------------0-----------|
|--------------------2------|X 4
|-------2-2--------------2--|
|--0-0----------------------|

Verse

|----------------------------|
|----------------------------|
|----------------------------|repeat until all until the part in the verse
|-2-2-2-h-4------------------|when the singing gets lower (listen to the
|-2-2-2----------------------|Beatles versointo hear what im talking about)
|----------------------------|when it gets to there go to your low E and A
                              and do this patteren

Intro


Verse

Chrous

|-----------------------------------------|
|-----------------------------------------|
|-----------------------------------------|
|-----------------------------------------|
|-7-7-7-7-7-7--7--7---2-2-2-2--3----------|
|-5-5-5-5-5-5--3--3---0-0-0-0--5----------|


Intro

verse


Chrous


Intro

Solo

|---------------------------------------------|
|---------------------------------------------|
|---11b--11--11-9----11---11b-11-11--9--11--12|
|-----------------9---------------------------|
|---------------------------------------------|
|---------------------------------------------|


Verse


Chrous


Intro


Ending


|-----------------------------------------------------|
|-----------------------------------------------------|
|-----------------------------------------------------|
|-----------------------------------------------------|
|-7-7-7-7-7-7--7--7---2-2-2-2--3--------3---3---3---5-|
|-5-5-5-5-5-5--3--3---0-0-0-0--5--------5---5---5---7-|
Tap to rate this tab
 
# A B C D E F G H I J K L M N O P Q R S T U V W X Y Z