Misc Unsigned Bands - Andrew Landon - Undying Love tab

------------------------------------------------------------------
	         UNDYING LOVE - Andrew Landon
------------------------------------------------------------------


Tuning: D A D F# B E

 
           1               2               3		 	
e |-----------------|--------------|--------------|--------------|
B |-----------------|--------------|--------------|--------------|
F#|--------0--------|------0-------|------0-------|------0-------|
D |---0-------0----0|--0------0---0|--0------0---0|--0------0---0|
A |-----------------|--------------|--------------|--------------|
D |12---12------12--|4---4------4--|4---5------5--|0---0------0--|

	
         4	
e |--------------|--------------|--------------|-----------------|
B |--------------|--------------|--------------|-----------------|
F#|--------------|------0-------|------0-------|------0----------|
D |------2-------|--0------0---0|--0------0---0|-----------------|
A |--4------4---4|--------------|--------------|--4------4---4---|
D |4---4------4--|5---5------5--|0---0------0--|0---0------0-----|


Intro: play

first & second line |
first line          |x2
part 4 (4x)         |


Verse: play

first line          | 
part 2 (x2)         |x2
part 3 (x2)         |

undying love part: play

part 2              |
part 3              |x2
part 1 (x2)         |

part 3          
part 2
part 4 (4x)
Tap to rate this tab
 
# A B C D E F G H I J K L M N O P Q R S T U V W X Y Z