Misc Unsigned Bands - Pain Is A Narcotic - All Alone tab

All Alone - By Slug. Copyright 2010


[intro]
-------------------------------------------|
-------------------------------------------|
------0----0----0----0----0----0----0----0-|
----3----3----5----5----7----7----5----5---|
--1----1----3----3----5----5----7----7-----|
-------------------------------------------|

[verse]
-------------------------------------------|
-------------------------------------------|
-------0-----0-----0-----0-----0-----0-----|
-----5-----5-----7-----7-----5-----5-------|
---3-----3-----5-----5-----7-----7---------|
-------------------------------------------|

[this part isn't actually in the recorded version, but if you want to add it, it fits 
song]
-------------------------------------------|
-------------------------------------------|
------0----0----0----0---------------------|
----4----4----2----2-----------------------|
--5----5----3----3-------------------------|
-------------------------------------------|

[chorus]
--------0---------0---------0---------0---------0--------------|
----------0---------0---------0---------0---------0------------|
------0---------0---------0---------0---------0----------------|
----5---------5---------7---------7---------5------------------|
--3---------3---------5---------5---------7--------------------|
---------------------------------------------------------------|
Tap to rate this tab
 
# A B C D E F G H I J K L M N O P Q R S T U V W X Y Z