Misc Unsigned Bands - Memory Tapes - Run Out tab

Artist:     Memory Tapes
Song:       Run Out
Album:      Seek Magic
Tabbed by:  Sascha D. Frost (Username DDball on youtube.com)

Note: Although tabbed notes are evenly spaced, the rhythm is
not necessarily uniform throughout.

Tuning: Standard EADGBe

Part A
e|-----------------------------15---------------------------------------|
B|-16--15--------------------------15--16--18--15----------13-----------|
G|---------12--14--15--17--------------------------15----------13-------|
D|-------------------------15--------------------------15----------12---|
A|----------------------------------------------------------------------|
E|----------------------------------------------------------------------|

e|----------------------------------------------------------------------|
B|----------------------------------------------------------------------|
G|----------------------------------------------------------------------|
D|-12--12h13--12--------------------------------------------------------|
A|----------------------------------------------------------------------|
E|----------------------------------------------------------------------|
(x2)

Part B
e|----------------------------------------------------------------------|
B|-------------------8--8------8-----8-----11--8------------------------|
G|-------------------------10-----------8-------------------------------|
D|----------------------------------------------------------------------|
A|----------------------------------------------------------------------|
E|----------------------------------------------------------------------|
(x2)

Part C
e|-------------------------11--13----------11--13----------13-----------|
B|-13--13--15--15--13--13----------11--13----------11--13---------------|
G|----------------------------------------------------------------------|
D|----------------------------------------------------------------------|
A|----------------------------------------------------------------------|
E|----------------------------------------------------------------------|

e|----------------------------------------------------------------------|
B|-11--13---------------------------------------------------------------|
G|----------------------------------------------------------------------|
D|----------------------------------------------------------------------|
A|----------------------------------------------------------------------|
E|----------------------------------------------------------------------|
(x2)

Part D
E|----------------------------------------------------------------------|
B|----------------------------------------------------------------------|
G|-12------10------12------10-------------------------------------------|
D|----------------------------------------------------------------------|
A|----------------------------------------------------------------------|
E|----------------------------------------------------------------------|

Part E
e|-----13------11------13------11------13------11------13------11-------|
B|--8------11------11------11------11------11------11------11-----------|
G|--8-------------------------------------------------------------------|
D|--8-------------------------------------------------------------------|
A|-10-------------------------------------------------------------------|
E|----------------------------------------------------------------------|

e|----11------10------11------10------11------10------11------10--------|
B|--------11------11------11------11------11------11------11------11----|
G|-7--------------------------------------------------------------------|
D|-8--------------------------------------------------------------------|
A|-x--------------------------------------------------------------------|
E|-6--------------------------------------------------------------------|

e|-13--10--11-----------------------------------------------------------|
B|----------------------------------------------------------------------|
G|----------------------------------------------------------------------|
D|----------------------------------------------------------------------|
A|----------------------------------------------------------------------|
E|----------------------------------------------------------------------|
(x4)

Part F
e|----8-----8-----8--8------------10------------10------10------10--10--|
B|-8-----8-----8-----------8--11------11--8---------11------11----------|
G|----------------------------------------------------------------------|
D|----------------------------------------------------------------------|
A|----------------------------------------------------------------------|
E|----------------------------------------------------------------------|
(x2)

Part G
e|------------------------------15--10--11--10--------------------------|
B|-----11--13--15--11--13-----------------------11----------------------|
G|-12-----------------------------------------------12------------------|
D|----------------------------------------------------------------------|
A|----------------------------------------------------------------------|
E|----------------------------------------------------------------------|
(x4)

Part H
e|----------------------------------------------------------------------|
B|-8-----8---------8-----8--------11--8---------------------------------|
G|----------10-----------------8----------------------------------------|
D|----------------------------------------------------------------------|
A|----------------------------------------------------------------------|
E|----------------------------------------------------------------------|
(x2)

Part I
e|----------------------------------------------------------------------|
B|-8----------8-------8-----11--8---------------------------------------|
G|--------10-------------8----------------------------------------------|
D|----10----------------------------------------------------------------|
A|----------------------------------------------------------------------|
E|----------------------------------------------------------------------|
(x2)
Tap to rate this tab
 
# A B C D E F G H I J K L M N O P Q R S T U V W X Y Z