Song name
# A B C D E F G H I J K L M N O P Q R S T U V W X Y Z

Misc Unsigned Bands - Nyjil Columbres - Doraemon Rock tab

Doraemon Rock Version(Short) by Nyjil Columbres at Facebook.com

Title: Doraemon Rock(Short)
Artist: ?
Tabber: Nyjil Columbres

PLEASE WATCH THE VIDEO FOR PRACTICE: 
http://www.facebook.com/profile.php?id=100000727512375#!/video/video.php?v=1482709904841

part I:
e|--------------------------------------------------|
B|--------------------------------------------------|
G|----------11-------14/16-------14-----------------|
D|----12-12----12 12-------12-12--------------------|
A|-12-----------------------------------------------|
E|--------------------------------------------------|

e|--------------------------------------------------|
B|--------------------------------------------------|
G|-14-14-16-14--------------------------------------|
D|-------------16-16-17-16-16-14--------------------|
A|--------------------------------------------------|
E|--------------------------------------------------|

e|--------------------------------------------------|
B|------------------------------ -------------------|
G|----------------11-13-14--18-18-18-18-16----------|
D|-------11-12-14-----------------------------------|
A|-12-14--------------------------------------------|
E|--------------------------------------------------|


e|--------------------------------------------------|
B|--------------------------------------------------|
G|-14-----------------------------------------------|
D|----16-17-16-14-------14-16-14--------------------|
A|----------------16-17-----------------------------|
E|--------------------------------------------------|

Sweeping...
e|-------14h17p14-----------------------------------|
B|----15----------15--------------------------------|
G|-14----------------14-----------------------------|
D|----------------------16--------------------------|
A|-------------------------17-----------------------|
E|--------------------------------------------------|

part II:
e|--------------------------------------------------|
B|--------------------------------------------------|
G|----------11-------14/16-------14-----------------|
D|----12-12----12 12-------12-12--------------------|
A|-12-----------------------------------------------|
E|--------------------------------------------------|

e|--------------------------------------------------|
B|--------------------------------------------------|
G|-14-14-16-14--------------------------------------|
D|-------------16-16-17-16-16-14--------------------|
A|--------------------------------------------------|
E|--------------------------------------------------|

e|--------------------------------------------------|
B|--------------------------------------------------|
G|----------------11-13-14--18-18-18-18-16----------|
D|-------11-12-14-----------------------------------|
A|-12-14--------------------------------------------|
E|--------------------------------------------------|


e|--------------------------------------------------|
B|--------------------------------------------------|
G|-14-----------------------------------------------|
D|----16-17-16-14-------14-16-12--------------------|
A|----------------16-17-----------------------------|
E|--------------------------------------------------|


e|-----|
B|-----|
G|-----|
D|-12~-|
A|-12~-|
E|-10~-|
Tap to rate this tab
 
# A B C D E F G H I J K L M N O P Q R S T U V W X Y Z