Misc Unsigned Bands - Nyjil Columbres - Wonderful Tonight Weird Style tab

Wonderful Tonight(Weird Style Tab) by Nyjil Columbres at facebook.com
-----------------------------------------------------------------------------
Song Version by: Nyjil Columbres
Age: 16
Nationality: Filipino
-----------------------------------------------------------------------------
PLEASE WATCH: 
http://www.facebook.com/profile.php?id=100000727512375#!/video/video.php?v=1475157756042
-----------------------------------------------------------------------------
PLEASE NOTE:

-Watch the video link for practice.
-Sorry for the mistakes here in this tab. I don't really get use on tabs>.<
-This a good way of practicing tapping.lols
-the last part of the video is a little different from this tab. The one from the video 
the first one and this is the updated and correct one but you can still finish the song.

I hope you like this version...
and if you don't like it, just don't mind it.
this is only for those who ask for this tab anyway.
Please enjoy...=)
Godbless you and Rock on.
^^\m/
----------------------------------------------------------------------------
INTRO I:

e|--------------------------||-5-----------7t5--------|
B|-------------12t10--------||-----------------8------|
G|-------12-----------12----||-------7-----------7----|
D|----12----12-----------12-||----7-----7-------------|
A|-10-----------------------||-5----------------------|
E|--------------------------||------------------------|

e|------------7p5t3---------||--------12--------------|
B|-5------------------------||-12-13------------------|
G|-------5------------------||------------------------|
D|----5-----5---------------||------------------------|
A|-3------------------------||-5----------------------|
E|--------------------------||------------------------|

e|-10-----------------------||-5-----------7t5--------|
B|-------------12t10--------||-----------------8------|
G|-------12-----------12----||-------7-----------7----|
D|----12----12-----------12-||----7-----7-------------|
A|-10-----------------------||-5----------------------|
E|--------------------------||------------------------|

e|------------7p5t3---------||--------12--------------|
B|-5------------------------||-12-13------------------|
G|-------5------------------||------------------------|
D|----5-----5---------------||------------------------|
A|-3------------------------||-5----------------------|
E|--------------------------||------------------------|


VERSE I:


e|-10----------------------||-5-----------------------|
B|-------------12t10-------||-------------5t10p5------|
G|-------12----------12----||-------7------------7----|
D|----12----12----------12-||----7-----7--------------|
A|-10----------------------||-5-----------------------|
E|-------------------------||-------------------------|


e|-3-----------3-----------||-5-----------5-----------|
B|--------------5---5------||--------------7---7------|
G|-------5--------5--------||-------7--------7--------|
D|----5-----5--------------||----7-----7--------------|
A|-3-----------------------||-5-----------------------|
E|-------------------------||-------------------------|


e|-10----------------------||-5-----------------------|
B|-------------12t10-------||-------------5t10p5------|
G|-------12----------12----||-------7------------7----|
D|----12----12----------12-||----7-----7--------------|
A|-10----------------------||-5-----------------------|
E|-------------------------||-------------------------|


e|-3-----------3-----------||-5----------5------------|
B|--------------5---5------||--------------7---7------|
G|-------5--------5--------||-------7--------7--------|
D|----5-----5--------------||----7-----7--------------|
A|-3-----------------------||-5-----------------------|
E|-------------------------||-------------------------|


CHORUS THINGY:

e|-3----------3------------||-5----------5------------|
B|--------------5---5------||--------------7---7------|
G|-------5--------5--------||-------7--------7--------|
D|----5-----5--------------||----7-----7--------------|
A|-3-----------------------||-5-----------------------|
E|-------------------------||-------------------------|

e|-------------|-----5-----||-------------------------|
B|-------12----|---8---8---||------------8------------|
G|----12----12-|-----------||-------9------9----------|
D|-------------|-----------||----9-----9-----9--------|
A|-10----------|-5---------||-7-----------------------|
E|-------------|-----------||-------------------------|


e|-3-----------3-----------||-5----------5------------|
B|--------------5---5------||--------------7---7------|
G|-------5--------5--------||-------7--------7--------|
D|----5-----5--------------||----7-----7--------------|
A|-3-----------------------||-5-----------------------|
E|-------------------------||-------------------------|

INTRO II:

e|--------------------------||-5-----------7t5--------|
B|-------------12t10--------||-----------------8------|
G|-------12-----------12----||-------7-----------7----|
D|----12----12-----------12-||----7-----7-------------|
A|-10-----------------------||-5----------------------|
E|--------------------------||------------------------|

e|------------7p5t3---------||--------12--------------|
B|-5------------------------||-12-13------------------|
G|-------5------------------||------------------------|
D|----5-----5---------------||------------------------|
A|-3------------------------||-5----------------------|
E|--------------------------||------------------------|

VERSE II:

e|-10----------------------||-5-----------------------|
B|-------------12t10-------||-------------5t10p5------|
G|-------12----------12----||-------7------------7----|
D|----12----12----------12-||----7-----7--------------|
A|-10----------------------||-5-----------------------|
E|-------------------------||-------------------------|


e|-3-----------3-----------||-5-----------5-----------|
B|--------------5---5------||--------------7---7------|
G|-------5--------5--------||-------7--------7--------|
D|----5-----5--------------||----7-----7--------------|
A|-3-----------------------||-5-----------------------|
E|-------------------------||-------------------------|


e|-10----------------------||-5-----------------------|
B|-------------12t10-------||-------------5t10p5------|
G|-------12----------12----||-------7------------7----|
D|----12----12----------12-||----7-----7--------------|
A|-10----------------------||-5-----------------------|
E|-------------------------||-------------------------|


e|-3-----------3-----------||-5----------5------------|
B|--------------5---5------||--------------7---7------|
G|-------5--------5--------||-------7--------7--------|
D|----5-----5--------------||----7-----7--------------|
A|-3-----------------------||-5-----------------------|
E|-------------------------||-------------------------|


CHORUS THINGY II:

e|-3----------3------------||-5----------5------------|
B|--------------5---5------||--------------7---7------|
G|-------5--------5--------||-------7--------7--------|
D|----5-----5--------------||----7-----7--------------|
A|-3-----------------------||-5-----------------------|
E|-------------------------||-------------------------|

e|-------------|-----5-----||-------------------------|
B|-------12----|---8---8---||------------8------------|
G|----12----12-|-----------||-------9------9----------|
D|-------------|-----------||----9-----9-----9--------|
A|-10----------|-5---------||-7-----------------------|
E|-------------|-----------||-------------------------|


e|-3-----------3-----------||-5----------5------------|
B|--------------5---5------||--------------7---7------|
G|-------5--------5--------||-------7--------7--------|
D|----5-----5--------------||----7-----7--------------|
A|-3-----------------------||-5-----------------------|
E|-------------------------||-------------------------|

INTRO III:

e|-------------------------||-12p5t10-----------------|
B|------------10t12p10-----||-------------------------|
G|-------12----------------||-------------------------|
D|----12----12-------------||-------------------------|
A|-10----------------------||-5-----------------------|
E|-------------------------||-------------------------|


BRIDGE THINGY:

e|-3----------3------------||-5----------5------------|
B|--------------5---5------||--------------7---7------|
G|-------5--------5--------||-------7--------7--------|
D|----5-----5--------------||----7-----7--------------|
A|-3-----------------------||-5-----------------------|
E|-------------------------||-------------------------|

e|-------------|-----5-----||-------------------------|
B|-------12----|---8---8---||------------8------------|
G|----12----12-|-----------||-------9------9----------|
D|-------------|-----------||----9-----9-----9--------|
A|-10----------|-5---------||-7-----------------------|
E|-------------|-----------||-------------------------|


e|-3-----------3-----------||-5----------5------------|
B|--------------5---5------||--------------7---7------|
G|-------5--------5--------||-------7--------7--------|
D|----5-----5--------------||----7-----7--------------|
A|-3-----------------------||-5-----------------------|
E|-------------------------||-------------------------|


e|-3-----------3-----------||-5----------5------------|
B|--------------5---5------||--------------7---7------|
G|-------5--------5--------||-------7--------7--------|
D|----5-----5--------------||----7-----7--------------|
A|-3-----------------------||-5-----------------------|
E|-------------------------||-------------------------|

INTRO IV:

e|--------------------------||-5-----------7t5--------|
B|-------------12t10--------||-----------------8------|
G|-------12-----------12----||-------7-----------7----|
D|----12----12-----------12-||----7-----7-------------|
A|-10-----------------------||-5----------------------|
E|--------------------------||------------------------|

e|------------7p5t3---------||--------12--------------|
B|-5------------------------||-12-13------------------|
G|-------5------------------||------------------------|
D|----5-----5---------------||------------------------|
A|-3------------------------||-5----------------------|
E|--------------------------||------------------------|

e|-10-----------------------||-5-----------7t5--------|
B|-------------12t10--------||-----------------8------|
G|-------12-----------12----||-------7-----------7----|
D|----12----12-----------12-||----7-----7-------------|
A|-10-----------------------||-5----------------------|
E|--------------------------||------------------------|

e|------------7p5t3---------||--------12--------------|
B|-5------------------------||-12-13------------------|
G|-------5------------------||------------------------|
D|----5-----5---------------||------------------------|
A|-3------------------------||-5----------------------|
E|--------------------------||------------------------|


VERSE IV:

e|-10----------------------||-5-----------------------|
B|-------------12t10-------||-------------5t10p5------|
G|-------12----------12----||-------7------------7----|
D|----12----12----------12-||----7-----7--------------|
A|-10----------------------||-5-----------------------|
E|-------------------------||-------------------------|


e|-3-----------3-----------||-5-----------5-----------|
B|--------------5---5------||--------------7---7------|
G|-------5--------5--------||-------7--------7--------|
D|----5-----5--------------||----7-----7--------------|
A|-3-----------------------||-5-----------------------|
E|-------------------------||-------------------------|


e|-10----------------------||-5-----------------------|
B|-------------12t10-------||-------------5t10p5------|
G|-------12----------12----||-------7------------7----|
D|----12----12----------12-||----7-----7--------------|
A|-10----------------------||-5-----------------------|
E|-------------------------||-------------------------|


e|-3-----------3-----------||-5----------5------------|
B|--------------5---5------||--------------7---7------|
G|-------5--------5--------||-------7--------7--------|
D|----5-----5--------------||----7-----7--------------|
A|-3-----------------------||-5-----------------------|
E|-------------------------||-------------------------|


CHORUS THINGY IV:

e|-3----------3------------||-5----------5------------|
B|--------------5---5------||--------------7---7------|
G|-------5--------5--------||-------7--------7--------|
D|----5-----5--------------||----7-----7--------------|
A|-3-----------------------||-5-----------------------|
E|-------------------------||-------------------------|

e|-------------|-----5-----||-------------------------|
B|-------12----|---8---8---||------------8------------|
G|----12----12-|-----------||-------9------9----------|
D|-------------|-----------||----9-----9-----9--------|
A|-10----------|-5---------||-7-----------------------|
E|-------------|-----------||-------------------------|


e|-3-----------3-----------||-5----------5------------|
B|--------------5---5------||--------------7---7------|
G|-------5--------5--------||-------7--------7--------|
D|----5-----5--------------||----7-----7--------------|
A|-3-----------------------||-5-----------------------|
E|-------------------------||-------------------------|

OUTRO I:
e|-------------------------||-7t3p0-------------------|
B|-------------12^---------||-------------------------|
G|-------12----------------||-------------------------|
D|----12----12-------------||-------------------------|
A|-10----------------------||-5-----------------------|
E|-------------------------||-------------------------|

Oh my darling, you look wonderful tonight...

e|-3----------3------------||-5----------5------------|
B|--------------5---5------||--------------7---7------|
G|-------5--------5--------||-------7--------7--------|
D|----5-----5--------------||----7-----7--------------|
A|-3-----------------------||-5-----------------------|
E|-------------------------||-------------------------|


OUTRO II:

e|--------------------------||-5-----------5t7h10p7p5-|
B|-------------12t10--------||------------------------|
G|-------12-----------12----||-------7----------------|
D|----12----12-----------12-||----7-----7-------------|
A|-10-----------------------||-5----------------------|
E|--------------------------||------------------------|

e|------------7p5t3---------||--------12--------------|
B|-5------------------------||-12-13------------------|
G|-------5------------------||------------------------|
D|----5-----5---------------||------------------------|
A|-3------------------------||-5----------------------|
E|--------------------------||------------------------|

e|-3------------------------||-12-12-10-12------------|
B|---5---5------------------||------------------------|
G|-----5--------------------||------------------------|
D|---------5----------------||------------------------|
A|-3------------------------||-5--5--5--5-------------|
E|--------------------------||------------------------|


e|-10-----------------------||-5-----------7t5--------|
B|-------------12t10--------||-----------------8------|
G|-------12-----------12----||-------7-----------7----|
D|----12----12-----------12-||----7-----7-------------|
A|-10-----------------------||-5----------------------|
E|--------------------------||------------------------|

e|------------7p5t3---------||--------12--------------|
B|-5------------------------||-12-13------------------|
G|-------5------------------||------------------------|
D|----5-----5---------------||------------------------|
A|-3------------------------||-5----------------------|
E|--------------------------||------------------------|


e|-10-|
B|----|
G|----|
D|----|
A|-10-|
E|----|

SYMBOLS:
p = Pull
h = Hammer
t = tap
^ = bend

Song lyrics:

VERSE:
It's late in the evening; she's wondering what clothes to wear.
She puts on her make-up and brushes her long blonde hair.

CHORUS:
And then she asks me, "Do I look all right?"
And I say, "Yes, you look wonderful tonight."

VERSE:
We go to a party and everyone turns to see
This beautiful lady that's walking around with me.

CHORUS:
And then she asks me, "Do you feel all right?"
And I say, "Yes, I feel wonderful tonight."

BRIDGE:
I feel wonderful because I see
The love light in your eyes.
And the wonder of it all
Is that you just don't realize how much I love you.

VERSE:
It's time to go home now and I've got an aching head,
So I give her the car keys and she helps me to bed.

CHORUS:
And then I tell her, as I turn out the light,
I say, "My darling, you were wonderful tonight.
Oh my darling, you were wonderful tonight."
Tap to rate this tab
 
# A B C D E F G H I J K L M N O P Q R S T U V W X Y Z