Song name
# A B C D E F G H I J K L M N O P Q R S T U V W X Y Z

Misc Unsigned Bands - Chris Tulip - Serenity tab

Serenity solo:

d-------------------------------------------------------------|
A--/8~-----10--8~----6--5--5h6p5--5----------5h6p5-5h6p5h6p5~-|
F--------------------------------7-7-5----5h7-----7-----------|
C-------------------------------------------------------------|
G-------------------------------------------------------------|
D-------------------------------------------------------------|

Dual guitar 1:

D--/8~----8----10--10h12-10-8--10-8~--|
A-------------------------------------|
F-------------------------------------|
C-------------------------------------|
G-------------------------------------|
D-------------------------------------|


     Fast:           [x6]
D--10---12-10-8---13-12-10-12-10---10-------------------------------------|
A--------------------------------13---13-12-13-12-10-12-10---10-----------|
F----------------------------------------------------------12---12-11-10~-|
C-------------------------------------------------------------------------|
G-------------------------------------------------------------------------|
D-------------------------------------------------------------------------|


Dual guitar 2:

D--/12~---12---13--13h15-13-12--13-12~-|
A--------------------------------------|
F--------------------------------------|
C--------------------------------------|
G--------------------------------------|
D--------------------------------------|

  Fast:               [x6]
D--13---15-13-12---17-15-13-15-13-12-13-12----12-----------------------------|
A------------------------------------------15----15-13-15-13-12-13-12--------|
F---------------------------------------------------------------------12/14~-|
C----------------------------------------------------------------------------|
G----------------------------------------------------------------------------|
D----------------------------------------------------------------------------|
Tap to rate this tab
 
# A B C D E F G H I J K L M N O P Q R S T U V W X Y Z