Song name
# A B C D E F G H I J K L M N O P Q R S T U V W X Y Z

Misc Unsigned Bands - The Night Alive - Liars tab

-------------------------------------------------------------------------------
The Night Alive – Liars
By Rod Pires
-------------------------------------------------------------------------------

Tabbed by: Beeni30
Email:     kickflip2207@hotmail.com


Rod Pires explained me the chords on FaceBook :D
Hope I got it right.
Beautiful song!


Tuning: Standard


Chords:

      X         Y        Z
e|----3---------3--------3------------------|
B|----3---------3--------3------------------|
G|----0---------0--------2------------------|
D|----0---------0--------0------------------|
A|----2---------3--------0------------------|
E|------------------------------------------|



Why dont you stay...           honestly  just missed               
e|-----------3-----------3------------3-------3----------------------------|
B|--------3-----------3------------3----------3----------------------------|
G|-----0-----------0------------0-------------0----------------------------|
D|--0-----------0------------0----------------0----------------------------|
A|-------------------------------------------------------------------------|
E|-------------------------------------------------------------------------|


Chorus: x2
         x
Save the lies for the liars,
y
Show me what you got girl,
y
Show me what you got,
x                           z
Because you and I both know Im wrong.



e|-----------3-----------3-----------3---------------------------3-|
B|--------3-----------3-----------3-----------3/4-------------3----|
G|-----0-----------0-----------0--------4-3-3-3/4-3-1------0-------|
D|--0-----------0-----------0---------------------------0----------|
A|-----------------------------------------------------------------|
E|-----------------------------------------------------------------|

e|-----------3-----3---------------------|
B|--------3--------3---------------------|
G|-----0-----------0---------------------|
D|--0--------------0---------------------|
A|---------------------------------------|
E|---------------------------------------|


x                   y
A guilty conscience speaks for itself
x                   y               y
And the lipstick on my pillow screams -

Heres to the night you ruined it all.

x       y                      z
I swore I’d never take you for granted
x             y    
But I did and you know it.
x             y
But I did and you hate it.

Chorus x2

e|-----------3-----------3-----------3---------------------------3-|
B|--------3-----------3-----------3-----------3/4-------------3----|
G|-----0-----------0-----------0--------4-3-3-3/4-3-1------0-------|
D|--0-----------0-----------0---------------------------0----------|
A|-----------------------------------------------------------------|
E|-----------------------------------------------------------------|

e|-----------3--------3------------------|
B|--------3----------3-------------------|
G|-----0------------0--------------------|
D|--0--------------0---------------------|
A|---------------------------------------|
E|---------------------------------------|


  Save the lies for the liars x3
e|-----------3-----------3-----------3-----------3-|
B|--------3-----------3-----------3-----------3----|
G|-----0-----------0-----------0-----------0-------|
D|--0-----------0-----------0-----------0----------|
A|-------------------------------------------------|
E|-------------------------------------------------|

  Save the lies….     for the liars 
e|-----------3--------3----|
B|--------3-----------3----|
G|-----0--------------0----|
D|--0-----------------0----|
A|-------------------------|
E|-------------------------|


Chorus x2

e|-----------3-----------3-----------3-----------------------|
B|--------3-----------3-----------3-----------3/4------------|
G|-----0-----------0-----------0--------4-3-3-3/4-3-1~-------|
D|--0-----------0-----------0--------------------------------|
A|-----------------------------------------------------------|
E|-----------------------------------------------------------|


RATE,RATE,RATE! :)
Tap to rate this tab
 
# A B C D E F G H I J K L M N O P Q R S T U V W X Y Z