Misc Unsigned Bands - Kaoma - Lambada tab

My first tab ever ! 

Kaoma - Lambada.

e:-5--3-1-0------1-0--------------|
b:----------3--3-----3-1-3--------|
G:-------------------------2-0-2--|
D:--------------------------------|
A:--------------------------------|
E:--------------------------------|

e:-5--3-1-0------1-0--------------|
b:----------3--3-----3-1-3--------|
G:-------------------------2-0-2--|
D:--------------------------------|
A:--------------------------------|
E:--------------------------------|


e:-3-3-1-0------1--5-3-1------1-0--------0-3-1-0----|
b:------------3-------------3------3-1-1---------3--|
G:----------3-------------3-------------------------|
D:--------------------------------------------------|
A:--------------------------------------------------|
E:--------------------------------------------------|

e:-3-3-1-0------1--5-3-1------1-0--------0-3-1-0----|
b:------------3-------------3------3-1-1---------3--|
G:----------3-------------3-------------------------|
D:--------------------------------------------------|
A:--------------------------------------------------|
E:--------------------------------------------------|

play this 2 more times.
Tap to rate this tab
 
# A B C D E F G H I J K L M N O P Q R S T U V W X Y Z