Song name
# A B C D E F G H I J K L M N O P Q R S T U V W X Y Z

Misc Unsigned Bands - Yash - Happy Birthday tab

Hey frnds jus made up the happy b'day tabs

So here's it for you :


E---------------------------0--------|
B------------1-0---------------3--1--|
G--0-0-2-0--------0-0-2-0------------|
D------------------------------------|
A------------------------------------|
E------------------------------------|

Now Repeat the whole thing again for the effect 

E---------------------------0--------|
B------------1-0---------------3--1--|
G--0-0-2-0--------0-0-2-0------------|
D------------------------------------|
A------------------------------------|
E------------------------------------|

Now the next part

E-------3-0------------1-1--0-----------|
B-----------1-0-----------------1-3-1---|
G--0-0----------2-----------------------|
D---------------------------------------|
A---------------------------------------|
E---------------------------------------|
Tap to rate this tab
 
# A B C D E F G H I J K L M N O P Q R S T U V W X Y Z