Song name
# A B C D E F G H I J K L M N O P Q R S T U V W X Y Z

Misc Unsigned Bands - Exceed Rtnario - Yu Yu Metal tab

E---------------------------------------------------------------------------|
B----14-16-14-12-14-9-9-----------------------------------------------------|
G-13------------------------11-13-14-13-11-13-------------------------------|
D---------------------------------------------11-11-----9-11-13-14-16-13-9--|
A---------------------------------------------------------------------------|
E---------------------------------------------------------------------------|


E---------------------------------------------------------------------------|
B---------------------------------------------------------------------------|
G---------------------------------------------------------------------------|
D---------------------------------------------------------------------------|
A-----11-14-16-18-16-14-16--------------------------------------------------|
E---------------------------------------------------------------------------|
Tap to rate this tab
 
# A B C D E F G H I J K L M N O P Q R S T U V W X Y Z