Song name
# A B C D E F G H I J K L M N O P Q R S T U V W X Y Z

Misc Unsigned Bands - State Of Error - Caught In The Rip tab

/     = Slide up
\     = Slide down
x     = Mute String
PM    = Palm Mute
/(8)  = Slide to fret in bracket but don't strum note
////  = Tremolo


Intro/Bridge (Rhythm PLays Verse Riff)

E|--------------------------------------------------------------------------|
B|--------------------------------------------------------------------------|
G|--7--7--11--11--11--11--11--x--9--9--9--x--7--/(9)--9--9--9--11--11--7--7-|
D|--------------------------------------------------------------------------|
A|--5--5--9---9---9---9---9---x--7--7--7--x--5--/(7)--7--7--7--9---9---5--5-|
E|--------------------------------------------------------------------------|

Intro (2nd Part, Kicked In)
                                    x2      After 1st time play this
  -----------------------------------|----------------------------------|--|
  -----------------------------------|----------------------------------|--|
  --7--7--7--7--7--7--7--7--7--7--7--|--14--14--14--14--16--16--12--12--|--|
  --7--7--7--7--7--7--7--7--7--7--7--|----------------------------------|--|
  --5--5--5--5--5--5--5--5--5--5--5--|--12--12--12--12--14--14--10--10--|--|
  -----------------------------------|----------------------------------|--|

         After 2nd time play this
  ------------------------------------------|
  ------------------------------------------|
  --9--9--9--9--11--11--11--11--11--11--11--|
  --7--7--7--7--9---9---9---9---9---9---9---|
  ------------------------------------------|
  ------------------------------------------|

Verses

  -------------------------------------------------|
  -------------------------------------------------|
  --7-7-7-7-7-7-7-7-7-7-7--------------------------|
  --7-7-7-7-7-7-7-7-7-7-7--7-7-7-7-7--5-5-5-5-5-5--|
  --5-5-5-5-5-5-5-5-5-5-5--7-7-7-7-7--5-5-5-5-5-5--|
  -------------------------5-5-5-5-5--3-3-3-3-3-3--|

Pre-Chorus

  -----------------------------------------------------------------|
  -----------------------------------------------------------------|
  --4-4-4-4-4-4-4-4-4-4-4----------------------------------2-2--2--|
  --4-4-4-4-4-4-4-4-4-4-4----5-5--5----4-4--4----5-5--5----2-2--2--|
  --2-2-2-2-2-2-2-2-2-2-2----5-5--5----5-5--5----5-5--5----0-0--0--|
  ---------------------------3-3--3----2-2--2----3-3--3------------|
                            |___|     |___|     |___|     |___|

  --------------------------------------------------------|
  --------------------------------------------------------|
  --4-4-4-4-4-4-4-4-4-4-4----2-2-2-2-2-2-2-2-2------------|
  --4-4-4-4-4-4-4-4-4-4-4----2-2-2-2-2-2-2-2-2------------|
  --2-2-2-2-2-2-2-2-2-2-2----0-0-0-0-0-0-0-0-0------------|
  ------------------------------------------------X--\----|

Chorus

  -----------------------------------------------------------------------|
  -----------------------------------------------------------------------|
  --7-7-7-7-7-7-7-7--6-6-6-6-6-6-6-6-------------------------------------|
  --7-7-7-7-7-7-7-7--7-7-7-7-7-7-7-7--9-9-9-9-9-9-9-9--5-5-5-5--7-7-7-7--|
  --5-5-5-5-5-5-5-5--4-4-4-4-4-4-4-4--9-9-9-9-9-9-9-9--5-5-5-5--7-7-7-7--|
  ------------------------------------7-7-7-7-7-7-7-7--3-3-3-3--5-5-5-5--|

Bridge
Verse 2
Pre-Chorus
Chorus

Solo

  Guitar 1
                                                                       x2
  -----------------------------------------------------------------------|--|
  -----------------------------------------------------------------------|--|
  -------11-12-11-9-11-9-----12-11-9-11-9----11-----11-12-14-12-11-12-11-|--|
  --9-12------------------11--------------12-----12----------------------|--|
  -----------------------------------------------------------------------|--|
  -----------------------------------------------------------------------|--|

     After 1st time play this    After 2nd time play this
  -----------------------------|---------------------------|--|
  -----------------------------|-----------14-15-14----14--|--|
  -----------------------------|--------12----------14-----|--|
  --14-12-11-12-11-12-11-\(7)--|--12-14--------------------|--|
  -----------------------------|---------------------------|--|
  -----------------------------|---------------------------|--|

  --------------------------------------------------------------------------|
  --12-12-14-12-15-12-14-12-10-10-14-10-15-10-14-10-12-12-14-12-15-12-14-12-|
  --------------------------------------------------------------------------|
  --------------------------------------------------------------------------|
  --------------------------------------------------------------------------|
  --------------------------------------------------------------------------|

    ////////////////////////////////////////////////////////////////////////
  --------------------------------------------------------------------------|
  --10-10-10-10-10-10-10-10-12-12-12-12-12-12-12-12-14-14-14-14-14-14-14-14-|
  --------------------------------------------------------------------------|
  --------------------------------------------------------------------------|
  --------------------------------------------------------------------------|
  --------------------------------------------------------------------------|

    ////////////////////////////////////////////////////////////////////////
  --------------------------12-12-12-12-12-12-12-12-14-14-14-14-14-14-14-14-|
  --15-15-15-15-15-15-15-15-------------------------------------------------|
  --------------------------------------------------------------------------|
  --------------------------------------------------------------------------|
  --------------------------------------------------------------------------|
  --------------------------------------------------------------------------|

    //////////////////////////////////////////
  --15-15-15-15-15-15-15-15-17-17-17-17-17-17---\----|
  ---------------------------------------------------|
  ---------------------------------------------------|
  ---------------------------------------------------|
  ---------------------------------------------------|
  ---------------------------------------------------|

  Guitar 2
                                                                         x2
  -----------------------------------------------------------------------|--|
  -----------------------------------------------------------------------|--|
  --------------------------------------------------------------------2--|--|
  --9--9--9--9-9-9---7--7--7--7-7-7---5--5--5-5-5-5----5----4----5----2--|--|
  --9--9--9--9-9-9---7--7--7--7-7-7---5--5--5-5-5-5----5----5----5----0--|--|
  --7--7--7--7-7-7---5--5--5--5-5-5---3--3--3-3-3-3----3----2----3-------|--|

  ----------------------------------------------------------------|
  ----------------------------------------------------------------|
  -----------------------------2-2-2-2-2-2-2-2-2-2-2-2-2-2-2-2----|
  --9--------5--------9--------2-2-2-2-2-2-2-2-2-2-2-2-2-2-2-2----|
  --9--------5--------9--------0-0-0-0-0-0-0-0-0-0-0-0-0-0-0-0----|
  --7--------3--------7-------------------------------------------|
                              |________PM_(slow releasing)____|

End Chorus Lead
                                                                          x4
  -------------------------------------------------------------------------|
  -------------------------------------------------------------------------|
  --7-7-7-7-7-7-7-7-/-9-9-9-9-9-9-9-9-/-111111111111111--11xx-9-xx-7-xx-9--|
  -------------------------------------------------------------------------|
  --5-5-5-5-5-5-5-5-/-7-7-7-7-7-7-7-7-/-9-9-9-9-9-9-9-9--9-xx-7-xx-5-xx-7--|
  -------------------------------------------------------------------------|

F.Y.I: there 11's not 1's in the bit above :')
thank you for learning xox
Tap to rate this tab
 
# A B C D E F G H I J K L M N O P Q R S T U V W X Y Z