Misc Unsigned Bands - Petty Education - Waiting chords

Highlighted       Show chord diagrams
-------------------------------------------------------------------------------
			     WAITING - PETTY EDUCATION
-------------------------------------------------------------------------------
Tabbed by:the lead guitarist of this band
Email:gilesjohn@hotmail.co.uk

Tuning:standard
this repeated is the verses
  g  c em  d
1|3--3--3--3----------|
2|3--3--3--3----------|
3|0--0--0--2----------|
4|0--2--2--0----------|
5|2--3--2--0----------|
6|3--0--0--2----------|

chorus:g  d  em  c
Tap to rate this tab
 
# A B C D E F G H I J K L M N O P Q R S T U V W X Y Z