Song name
# A B C D E F G H I J K L M N O P Q R S T U V W X Y Z

Misc Unsigned Bands - Powerage - Get Up tab

Powerage
Get Up!!
Composer:Matt
Tuning:Standard
Key:
x=muted note
p=pull-off
h=hammer-on
~=whammy
/=divebomb release speed


            Intro (clean)
e|--------------------------------|------------------------------------------|
b|--------------------------------|------------------------------------------|
g|--------------------------------|------------------------------------------|
d|----0-----0---------2-----2-----|----0-----0-------2-----2-----------------|
a|--4-----4-----4---2-----2-----2-|--4-----4---4---2-----2-----2-------------|
e|2-----2-----2---0-----0-----0---|2-----2---2---0-----0-----0---------------|
                                   This is the last time, i say goodbye
                                   This will be the last time i see your face
         Verse   gtr1&2
e|--------------------------------------------------------------------|
b|--------------------------------------------------------------------|
g|--------------------------------------------5--------------2--9-----|
d|--2---2---2---2---0---0---0---5-------------5--------------2---8--10|
a|-2-2-2-2-2-2-2-2-2-2-2-2-2-2--5-------------3--------------0----8---|
e|0---0---0---0---3---3---3---3-3----------------------------------9--|
                                I   Hate You  Just dont like you
e|----------------------------------17-16--|
b|-----------------------------------------|
g|-----------------------------------------|
d|7---9----7---6---5-2-------/___----------|
a|5---7----5---4---3-0------/--------------|
e|--------------------0*___/---------------|
  Its just the way i am____yea-ah

 
         Chorus gtr1&2
e|-------------------------------------------------------------------------------|
b|-------------------------------------------------------------------------------|
g|-------------------------------------------------------------------------------|
d|xx-x-5-5-5-5-5-5-5-------------------------------------------------------------|
a|xx-x-3-3-3-3-3-3-3-xx-x-5-5-5-5-5-5-5-xx-x-3-3-3-3-3-3-3-xx-x-2-2-2-2-2-2-2-2--|
e|-------------------xx-x-3-3-3-3-3-3-3-xx-x-1-1-1-1-1-1-1-xx-x-0-0-0-0-0-0-0-0--|
  When hell freezes over and the heavens burn ill be comin' round to take my turn
e|--8---8-------------------------------------------------------------8---8-|
b|--7---7-------------------------------------------------------------7---7-|
g|--------------------------------------------------------------------------|
d|----------4-6-5-4-5----4-6-5-4-5----5-6-5--4-6-5-4-5----4-6-5-4-5---------|
a|----------2-4-3-2-3----2-4-3-2-3----3-2-3--2-4-3-2-3----2-4-3-2-3---------|
e|--------------------------------------------------------------------------|
  So get up!                                                          Get Up!
e|-----------|
b|-----------|
g|-----------|
d|---2-------|
a|5--0--2-2-2|
e|3-----0-0-0|

         Solo              ~~~~~~~
e|------------------------------------------------------------------------------|
b|----4-5---5-------------------------------------------------12-13-12--12-13-12|
g|5-6-----4---4-----------------------------------------------------------------|
d|--------------5-4-----------------7-6-----------------------------------------|
a|------------------5-4-----------------7-6--4-5--2-3---------------------------|
e|----------------------5-4---------------------------3-1-0*--------------------|

e|13-12----12--13-12--11------------8-7-11-6-4-3-0----------------------------7--9|
b|------14---------------12-11--9-7----------------4-2-1p0-------------------8-8--|
g|--------------------------------------------------------------------------7---7-|
d|--------------------------------------------------------------------------------|
a|---------------------------------------------------------5-56-------------------|
e|--------------------------------------------------------------5-56-44-2p0-------|

                     | with whammy                 |                       ~~~~~~
e|------------------------------------------------------------------------0-------|
b|------------------------------------------------------------------------0-------|
g|--------------------------------------------------------------------------------|
d|8----------------------------------------------------8--------------------------|
a|---9-8--------8-7--12--12-12h14-12--10--8-6--4-2-0-----9-7----------------------|
e|--------9-8-7------12--12-12----12--10--8-6--4-2-0---------8-7-5-4-2-0*r--------|

e|-------------------------------------------------------------------------8---8-|
b|-------------------------------------------------------------------------7---7-|
g|------------9----------------7-------5--------------------2--------------------|
d|------------9----------------7-------5--------------------2---3-----9--12------|
a|------------7----------------5-------3--------------------0---3-----9--12------|
e|--------------------------------------------------------------1-----7--10------|
  When theres nothing left for you and the walls around you fall...........get up!


ORDER:
INTRO
VERSE
CHORUS
SOLO
INTERLUDE
CHORUS
INTRO(without words)
CHORUS X2(fade)
Tap to rate this tab
 
# A B C D E F G H I J K L M N O P Q R S T U V W X Y Z