Misc Unsigned Bands - Clockwork - Lake Of Blood tab

Clockwork: Lake of Blood
Tuning should really be B#                  (incomplete please do not rate)
PM +
hold *
fast tempo
(acoustic)

--------------------------|
--------------------------|
---0-----0-----0----------|  (X4)
--3-3---3-3---2-2---3--1--|
-0---0-0---0-0---0-3--1---|
0-----0-----0-----3--1----|


-------------------------|
-------------------------|
-------------------------|
--3--2--3--5--7--7--5--5-|
-0--0--0--0--5--5--3--3--|
0--0--0--0--5--5--3--3---|


-------------------------|
-------------------------|
-------------------------|
--3--2--3--5--5--5--3--3-|
-0--0--0--0--3--3--1--1--|
0--0--0--0--3--3--1--1---|


------------------------|
------------------------|
------------------------|
--7--7--0--0--5--53-----|
-5--5--0--0--3--3-1-----|
5--5--0--0--3--3--1-----|
                  *
(distortion)
------------------------|
------------------------|
------------------------|  (X4)
0-----------0-----------|
0-----------0-----------|
0-000-0-0-0-0-000-0-0-0-|
  +++ + + +   +++ + + +

------------------------|
------------------------|
------------------------|  (X3)
3-----------3-----------|
0-----------0-----------|
0-000-0-0-0-0-000-0-0-0-|
  +++ + + +   +++ + + +

---------|
---------|
3------2-|
0------0-|
0------0-|
*

------------------------|
------------------------|
------------------------|
3-------2---------------|
0-(X12)-0-(X12)---------|
0-------0---------------|


----------------------------|
----------------------------|
----------------------------|
0----------------0----------|
0-(X7)-----------0-(X7)-----|
0------000-0-0-0-0-----000--|
       +++ + + +       +++

---------------------------|
---------------------------|
---------------------------|
2-2-2-3-------2------5-5-5-|
0-0-0-0-(X12)-0-(X9)-0-0-0-|
0-0-0-0-------0------0-0-0-|


---------------------------|
---------------------------|
---------------------------|
3-----3-----3-----3-----3--|
3-----3-----3-----3-----3--|
3-3-3-3-3-3-3-3-3-3-3-3-3--|
  + +   + +   + +   + + *

riff 1
------------------------------------------------|
------------------------------------------------|
------------------------------------------------|
3-----3-----5-5-5-3-3-3-3-----3-----7-7-7-5-5-5-|
0-----0-----3-3-3-1-1-1-0-----0-----5-5-5-3-3-3-|
0-0-0-0-0-0-3-3-3-1-1-1-0-0-0-0-0-0-5-5-5-3-3-3-|
  + +   + +               + +   + +              (X2)

------------------------------------------------|
------------------------------------------------|
------------------------7-7-7-3-3-3-5-5-5-3-3-3-|
3-----3-----5-5-5-3-3-3-5-5-5-1-1-1-3-3-3-1-1-1-|
0-----0-----3-3-3-1-1-1-5-5-5-1-1-1-3-3-3-1-1-1-|
0-0-0-0-0-0-3-3-3-1-1-1-5-5-5-1-1-1-3-3-3-1-1-1-|
  + +   + +
Tap to rate this tab
 
# A B C D E F G H I J K L M N O P Q R S T U V W X Y Z