Song name
# A B C D E F G H I J K L M N O P Q R S T U V W X Y Z

Misc Unsigned Bands - Clockwork - Lake Of Blood tab

Clockwork: Lake of Blood
Tuning should really be B#                                
PM +
hold *
fast tempo


(acoustic)(intro)
-------------------------|
-------------------------|
---0-----0-----0---------|  (X4)
--3-3---3-3---2-2---3--1-|
-0---0-0---0-0---0-3--1--|
0-----0-----0-----3--1---|


-------------------------|
-------------------------|
-------------------------|
--3--2--3--5--7--7--5--5-|
-0--0--0--0--5--5--3--3--|
0--0--0--0--5--5--3--3---|


-------------------------|
-------------------------|
-------------------------|
--3--2--3--5--5--5--3--3-|
-0--0--0--0--3--3--1--1--|
0--0--0--0--3--3--1--1---|


-------------------------|
-------------------------|
-------------------------|
--7--7--0--0--5--5-3-----|
-5--5--0--0--3--3--1-----|
5--5--0--0--3--3---1-----|
                   *
(distortion)
------------------------|
------------------------|
------------------------|  (X4)
0-----------0-----------|
0-----------0-----------|
0-000-0-0-0-0-000-0-0-0-|
  +++ + + +   +++ + + +

------------------------|
------------------------|
------------------------|  (X3)
3-----------3-----------|
0-----------0-----------|
0-000-0-0-0-0-000-0-0-0-|
  +++ + + +   +++ + + +

---------|
---------|
3------2-|
0------0-|
0------0-|
*

------------------------|
------------------------|
------------------------|
3-------2---------------|
0-(X12)-0-(X12)---------|
0-------0---------------|


----------------------------|
----------------------------|
----------------------------|
0----------------0----------|
0-(X7)-----------0-(X7)-----|
0------000-0-0-0-0-----000--|
       +++ + + +       +++

---------------------------|
---------------------------|
---------------------------|
2-2-2-3-------2------5-5-5-|
0-0-0-0-(X12)-0-(X9)-0-0-0-|
0-0-0-0-------0------0-0-0-|


---------------------------|
---------------------------|
---------------------------|
3-----3-----3-----3-----3--|
3-----3-----3-----3-----3--|
3-3-3-3-3-3-3-3-3-3-3-3-3--|
  + +   + +   + +   + + *

(riff 1/1)
------------------------------------------------|
------------------------------------------------|
------------------------------------------------|
3-----3-----5-5-5-3-3-3-3-----3-----7-7-7-5-5-5-|
0-----0-----3-3-3-1-1-1-0-----0-----5-5-5-3-3-3-|
0-0-0-0-0-0-3-3-3-1-1-1-0-0-0-0-0-0-5-5-5-3-3-3-|
  + +   + +               + +   + +              (X2)

(riff 1/2)
-----------------------|------------------------|
-----------------------|------------------------|
-----------------------|7-7-7-3-3-3-5-5-5-3-3-3-|
3-----3-----5-5-5-3-3-3|5-5-5-1-1-1-3-3-3-1-1-1-|
0-----0-----3-3-3-1-1-1|5-5-5-1-1-1-3-3-3-1-1-1-|
0-0-0-0-0-0-3-3-3-1-1-1|5-5-5-1-1-1-3-3-3-1-1-1-|
  + +   + +

(2nd time riff 1/2)
------------------------|
------------------------|
7-7-7-3-3-3-5-5-5-7-7-7-|
5-5-5-1-1-1-3-3-3-5-5-5-|
5-5-5-1-1-1-3-3-3-5-5-5-|
5-5-5-1-1-1-3-3-3-5-5-5-|


(riff 2/1)
------------------------------------------------|
------------------------------------------------|
------------------------------------------------|
3-----3-----5-555-5-5-5-3-----3-----5-555-5-5-5-|
3-----3-----3-333-3-3-3-3-----3-----3-333-3-3-3-|
3-3-3-3-3-3-------------3-3-3-3-3-3-------------|
  + +   + +   +++ + + +   + +   + +   +++ + + +

(riff 2/2)
------------------------------------------------|
------------------------------------------------|
------------------------------------------------|
3-----3-----3-333-3-3-3-3-----3-----3-333-3-3-3-|
0-----0-----1-111-1-1-1-0-----0-----1-111-1-1-1-|
0-0-0-0-0-0-------------0-0-0-0-0-0-------------|
  + +   + +   +++ + + +   + +   + +   +++ + + +


-----------|-------------------------------|
-----------|-------------------------------|
-(riff 2/1)|-------------------------------|
-----------|-5/7-------3--3-5--5-3--3-7--7-|
-----------|-3/5-(X12)-1--1-3--3-3--3-5--5-|
-----------|---------------------3--3------|


(chorus)                (1st & 3rd)
-----------------------|------------------------|
-----------------------|------------------------|
-----------------------|------------------------|  (X3)
3-3-3-2-2-2-3-3-3-5-5-5|5-----5-----3-----3-----|
0-0-0-0-0-0-0-0-0-0-0-0|5-----5-----3-----3-----|
0-0-0-0-0-0-0-0-0-0-0-0|5-5-5-5-5-5-3-3-3-3-3-3-|
                          + +   + +   + +   + +

(2nd time)
-------------------------|
-------------------------|
-------------------------|
5---5-5-----3---3-3------|
3---3-3-----1---1-1------|
3-3-3-3-3-3-1-1-1-1-1-1--|
  +     + +   +     + +

(chorus 2)
-----------------------|---------------------|
-----------------------|---------------------|
-----------------------|---------------------|
3-----------3----------|5-----5-----5--5-5-5-|
1-----------1----------|3-----3-----3--3-3-3-|
1-111-1-1-1-1-111-1-1-1|3-3-3-3-3-3-3--3-3-3-|
  +++ + + +   +++ + + +   + +   + +


(riff 1)



(riff 2)



(2nd playthrough/chorus)
------------------------|
------------------------|
------------------------|
5-----5-----5-----------|
3-----3-----3-----------|
3-3-3-3-3-3-3-----------|
  + +   + + *

(interlude)          (1st, 2nd, & 3rd)
--------------------|--------------------|
--------------------|--------------------|  (X4)
--------------------|--------------------|
2-2-2-3-2-2-5-2-2-3-|2-2-2-3-2-2-5-2-2-3-|
0-------------------|0-------------------|
0-------------------|0-------------------|
  + +   + +   + +      + +   + +   + +

(4th time)
------------|
------------|
------------|
2-2-2-3---2-|
0-----------|
0-----------|
  + +


------------------------------------------------|
------------------------------------------------|
------------------------------------------------|
2-2-2-3-3-3-5-5-5-3-3-3-2-2-2-3-3-3-5-5-5-3-3-3-|
0-0-0-0-0-0-0-0-0-0-0-0-0-0-0-0-0-0-0-0-0-0-0-0-|
0-0-0-0-0-0-0-0-0-0-0-0-0-0-0-0-0-0-0-0-0-0-0-0-|

                                                   (X2)

-----------------------|------------------------|
-----------------------|------------------------|
-----------------------|------------------------|
2-2-2-3-3-3-5-5-5-3-3-3|8-8-8-7-7-7-5-5-5-7-7-7-|
0-0-0-0-0-0-0-0-0-0-0-0|0-0-0-0-0-0-0-0-0-0-0-0-|
0-0-0-0-0-0-0-0-0-0-0-0|0-0-0-0-0-0-0-0-0-0-0-0-|


(2nd time)
-------|
-------|
-------|
2------|
0------|
0------|
*


------------------------------------------------|
------------------------------------------------|  (X3)
------------------------------------------------|
8-8-8-7-7-7-5-5-5-3-3-3-2-2-2-3-3-3-5-5-5-3-3-3-|
------------------------------------------------|
------------------------------------------------|
+ + + + + + + + + + + + + + + + + + + + + + + +


--------------------------------------|
--------------------------------------|
--------------------------------------|
8-8-8-7-7-7-5-5-5-3-3-3-2-2-2-3---2---|
----------------------------------0---|
----------------------------------0---|
+ + + + + + + + + + + + + + +


-----------------------------------------|------|
-----------------------------------------|------|  (X3)
-----------------------------------------|------|
8-8-8-7-7-7-5-5-5-3-3-3-2-2-2-3-3-3-5-5-5|5-5-5-|
0-0-0-0-0-0-0-0-0-0-0-0-0-0-0-0-0-0-0-0-0|5-5-5-|
0-0-0-0-0-0-0-0-0-0-0-0-0-0-0-0-0-0-0-0-0|5-5-5-|


(2nd & 3rd time)
------|
------|
------|
1-1-1-|
1-1-1-|
1-1-1-|



----------------------------|
----------------------------|
----------------------------|
3-----3-----3-----3-----3---|
3-----3-----3-----3-----3---|
3-3-3-3-3-3-3-3-3-3-3-3-3---|
  + +   + +   + +   + + *


--------------------------|
--------------------------|
---0-----0-----0----------|  
--3-3---3-3---2-2---3--1--|
-0---0-0---0-0---0-3--1---|
0-----0-----0-----3--1----|
++++++++++++++++++++++++


---------------------|
---------------------|
---0-----0-----0-----|
--3-3---3-3---2-2--2-|
-0---0-0---0-0---0-0-|
0-----0-----0------0-|
++++++++++++++++++


(chorus 1)



---------------------------------------------|
---------------------------------------------|
---------------------------------------------|
1-----------1-----------5-----5-----5--5-5-5-|
1-----------1-----------3-----3-----3--3-3-3-|
1-111-1-1-1-1-111-1-1-1-3-3-3-3-3-3-3--3-3-3-|
  +++ + + +   +++ + + +   + +   + +           

(outro)
------------------------------------------------|
------------------------------------------------|
------------------------------------------------|
3-3-3-2-2-2-3-3-3-1-1-1-3-3-3-2-2-2-3-3-3-1-1-1-|
0-0-0-0-0-0-3-3-3-1-1-1-0-0-0-0-0-0-3-3-3-1-1-1-|
0-0-0-0-0-0-3-3-3-1-1-1-0-0-0-0-0-0-3-3-3-1-1-1-|

                                                  (X2)

-----------------------|------------------------|
-----------------------|------------------------|  
-----------------------|7-7-7-3-3-3-5-5-5-3-3-3-|
3-3-3-2-2-2-3-3-3-1-1-1|5-5-5-1-1-1-3-3-3-1-1-1-|
0-0-0-0-0-0-3-3-3-1-1-1|5-5-5-1-1-1-3-3-3-1-1-1-|
0-0-0-0-0-0-3-3-3-1-1-1|5-5-5-1-1-1-3-3-3-1-1-1-|



----|
----|
----|
0---|
0---|
0---|
*

(acoustic)
--------------------------|
--------------------------|
---0-----0-----0----------|  (X2)
--3-3---3-3---2-2---3--1--|
-0---0-0---0-0---0-3--1---|
0-----0-----0-----3--1----|



--------------------------|
--------------------------|
---0-----0-----3-----1----|  
--3-3---2-2---3-3---1-1---|
-0---0-0---0-3---3-1---1--|
0-----0-----3-----1-------|



--------------------------|
--------------------------|
---0-----0----------------|
--3-3---2-2--3---1---0----|
-0---0-0---0-3---1---0----|
0-----0------3---1---0----|
             *   *   *


END TAB
*expect Mp3 in the future*
Tap to rate this tab
 
# A B C D E F G H I J K L M N O P Q R S T U V W X Y Z