Song name
# A B C D E F G H I J K L M N O P Q R S T U V W X Y Z

Misc Unsigned Bands - Lost Fragment - Far Away From You tab

I wrote this song because i was feeling down one day. Hpoe you enjoy playing it.

Tuning:DADGBE

Intro: Distortion Delay: 300mm
]-------------------10p0---------------------------10p0--------------------[
]-7p0---7p0-10p0-7p0----10p0-7p0-7p0---7p0-10p0-7p0----10p0-7p0------------[
]----7p0----------------------------7p0------------------------------------[
]--------------------------------------------------------------------------[
]--------------------------------------------------------------------------[
]--------------------------------------------------------------------------[
Intro to Verse 1: Distortion: No Delay
]-------------------10p0---------------------------10p0--------------------[
]-7p0---7p0-10p0-7p0----10p0-7p0-7p0---7p0-10p0-7p0----10p0-7p0------------[
]----7p0----------------------------7p0------------------------------------[
]--------------------------------------------------------------------------[
]--------------------------------------------------------------------------[
]--------------------------------------------------------------------------[

]--------------------------------------------------------------------------[
]-7-7-7-7-7-7-10-10-10-10-10-10-12-12-12-12-12-12-15-15-15-15-15-15-15~----[
]-0-0-0-0-0-0-0--0--0--0--0--0--0--0--0--0--0--0--0--0--0--0--0--0---------[
]--------------------------------------------------------------------------[
]--------------------------------------------------------------------------[
]--------------------------------------------------------------------------[
Verse 1 and 2:
]--------------------------------10p0---------[
]-7p0---7p0-10p0-7p0---7p0---7p0-----10p0-7p0-[
]----7p0------------7p0---7p0-----------------[
]---------------------------------------------[
]---------------------------------------------[
]---------------------------------------------[
Chorus:
]---------------------------------------------[
]---------------------------------------------[
]---------------------------------------------[
]-9--9-9999--9--9-9999--9--9-9999--9--9--9999-[
]-9--9-9999--9--9-9999--9--9-9999--9--9--9999-[
]-9--9-9999--9--9-9999--9--9-9999--9--9--9999-[

]---------------------------------------------[
]---------------------------------------------[
]---------------------------------------------[
]-5--5-5555--5--5-5555--8--8-8888--7--7--7777-[
]-5--5-5555--5--5-5555--5--5-5555--4--4--4444-[
]-5--5-5555--5--5-5555--5--5-5555--4--4--4444-[
Tap to rate this tab
 
# A B C D E F G H I J K L M N O P Q R S T U V W X Y Z