Song name
# A B C D E F G H I J K L M N O P Q R S T U V W X Y Z

Misc Unsigned Bands - Prisoners Of Sorrow - Reborn tab

                             SOLO PT 1

|1|-----------------------------------------------------------------------||
|2|-----7-9/-12-11---9---------12~----------------------------------------||
|3|7H-9-----------12------10---10~----------------------------------------||
|4|-------------------12--------0~----------------------------------------||
|5|-----------------------------------------------------------------------||
|6|-----------------------------------------------------------------------||

                             Part 2
|1|-----------------------------------------------------------------------||
|2|---------------9-------------------7-9-10-9------9-7H-9h-7-7-----------||
|3|------------7-----7-----------9-10----------10-9--------------9-7------||
|4|----9H-10-----------10h-9-7--------------------------------------------||
|5|-7---------------------------------------------------------------------||
|6|-----------------------------------------------------------------------||


H= hammer on
h= hammer off
/= slide
~= long note
Tap to rate this tab
 
# A B C D E F G H I J K L M N O P Q R S T U V W X Y Z