Song name
# A B C D E F G H I J K L M N O P Q R S T U V W X Y Z

Misc Unsigned Bands - Trey Garrison - Walking The Line tab

-----------------------------------------------------------------------------
			     Walking The Line - Trey Garrison
-----------------------------------------------------------------------------
Tabbed by: Trey Garrison
Email: treygarrison@windstream.net 
Tuning: Drop D

Intro

e|--------------------------------------------------------------------------|
B|--------------------------------------------------------------------------|
G|--------------------------------------------------------------------------|
D|---0-0--0X--0-0~--------10-10--10X--10-10---12-12--12X--12-12-------------|
A|---0-0--0X--0-0~--(x2)---8--8---8X---8--8---10-10--10X--10-10---(x2)------|
D|---0-0--0X--0-0~---------8--8---8X---8--8---10-10--10X--10-10-------------|

e|--------------------------------------------------------------------------|
B|--------------------------------------------------------------------------|
G|--------------------------------------------------------------------------|
D|---0~-------0~-------10~-------12~----------------------------------------|
A|---0~-------0~--------8~-------10~----------------------------------------|
D|---0~-------0~--------8~-------10~----------------------------------------|

Verse 1

e|--------------------------------------------------------------------------|
B|--------------------------------------------------------------------------|
G|-------------------------5b-----------------------------------------------|
D|---0-0X-0X-0X-0-0---5h6h8----0-0X-0X-0X-0---888-7777----------------------|
A|---0-0X-0X-0X-0-0------------0-0X-0X-0X-0---888-7777----------------------|
D|---0-0X-0X-0X-0-0------------0-0X-0X-0X-0---888-7777----------------------|

e|--------------------------------------------------------------------------|
B|--------------------------------------------------------------------------|
G|--------------------------5b----------------------------------------------|
D|---0-0X-0X-0X-0-0---5h6h8----0-0X-0X-0X-0---888-10101010------------------|
A|---0-0X-0X-0X-0-0------------0-0X-0X-0X-0---888-10101010------------------|
D|---0-0X-0X-0X-0-0------------0-0X-0X-0X-0---888-10101010------------------|

Pre-Breakdown

e|--------------------------------------------------------------------------|
B|--------------------------------------------------------------------------|
G|--------------------------------------------------------------------------|
D|---0--0X-0X-0X--0-0~--------0-0X-0X-0-0X-0X--0--\12-----------------------|
A|---0--0X-0X-0X--0-0~--(x3)--0-0X-0X-0-0X-0X--0--\12-----------------------|
D|---0--0X-0X-0X--0-0~--------0-0X-0X-0-0X-0X--0--\12-----------------------|

Breakdown

e|--------------------------------------------------------------------------|
B|--------------------------------------------------------------------------|
G|--------------------------------------------------------------------------|
D|---0--0X-0X-0X--0-0~---0--0X-0X-0X--0-0~----------------------------------|
A|---0--0X-0X-0X--0-0~---0--0X-0X-0X--0-0~--5h8-5h8--4h7-4h7--(x2)----------|
D|---0--0X-0X-0X--0-0~---0--0X-0X-0X--0-0~----------------------------------|

e|--------------------------------------------------------------------------|
B|--------------------------------------------------------------------------|
G|--------------------------------------------------------------------------|
D|---1X--1X-1X-1X--1X-1X~---1X--1X-1X-1X--1X-1X~----------------------------|
A|---1X--1X-1X-1X--1X-1X~---1X--1X-1X-1X--1X-1X~--3h6-3h6--2h5-2h5--(x2)----|
D|---1X--1X-1X-1X--1X-1X~---1X--1X-1X-1X--1X-1X~----------------------------|

Breakdown Continued, Second time add this.

e|--------------------------------------------------------------------------|
B|--------------------------------------------------------------------------|
G|--------------------------------------------------------------------------|
D|--------------------------------------------------------------------------|
A|---3h6-3h6-2h5-2h5--5h8-5h8-4h7-4h7---------------------------------------|
D|--------------------------------------------------------------------------|

e|--------------------------------------------------------------------------|
B|--------------------------------------------------------------------------|
G|--------------------------------------------------------------------------|
D|---0-0--0X--0-0~--------10-10--10X--10-10---12-12--12X--12-12-------------|
A|---0-0--0X--0-0~--(x2)---8--8---8X---8--8---10-10--10X--10-10---(x2)------|
D|---0-0--0X--0-0~---------8--8---8X---8--8---10-10--10X--10-10-------------|

e|--------------------------------------------------------------------------|
B|--------------------------------------------------------------------------|
G|--------------------------------------------------------------------------|
D|---0~-------0~-------10~-------12~----------------------------------------|
A|---0~-------0~--------8~-------10~-------(x2)-----------------------------|
D|---0~-------0~--------8~-------10~----------------------------------------|

Outro

e|--------------------------------------------------------------------------|
B|--------------------------------------------------------------------------|
G|--------------------------------------------------------------------------|
D|---0~-1X-1X--0~-------0-0X-0-----------5b-1-0-----------------------------|
A|---0~-1X-1X--0~--(x3)-0-0X-0-----5h6h8----1-0-----------------------------|
D|---0~-1X-1X--0~-------0-0X-0--------------1-0-----------------------------|
Tap to rate this tab
 
# A B C D E F G H I J K L M N O P Q R S T U V W X Y Z