Misc Unsigned Bands - Val Emmich - The Lucky Ones tab

ARTIST: Val Emmich
SONG: The Lucky Ones
ALBUM: Little Daggers
TABBED BY: DKach
QUESTIONS/CORRECTIONS: email austin043@aol.com

INTRO (electric guitar) do do do do do (x2)
e|-------|-------|--------------------|
B|-------|-------|--------------------|
G|-------|-------|--------------------|
D|-99999-|-99999-|-9-9--6-4-2--999999-|
A|-99999-|-99999-|-9-9--6-4-2--777777-|
E|-77777-|-77777-|-7-7--4-2-0---------|

VERSES (acoustic in a strumming fashion) So it starts like this

e|-----------------|-----------------|
B|-----------------|-----------------|
G|-----------------|-----------------|
D|-9-9-9-9-9-9-9-9-|-6-6-6-6-6-6-6-6-|
A|-9-9-9-9-9-9-9-9-|-6-6-6-6-6-6-6-6-|
E|-7-7-7-7-7-7-7-7-|-4-4-4-4-4-4-4-4-|

end each verse with (carry on my back, I'll have bruises on my back)
e|---------------|
B|---------------|
G|---------------|
D|-6-4-2--999999-|
A|-6-4-2--777777-|
E|-4-2-0---------|


CHORUS I'm waiting, waiting, but nothing comes

x1
e|-----------------|-----------------|-----------------|-----------------|
B|-----------------|-----------------|-----------------|-----------------|
G|-----------------|-----------------|-----------------|-----------------|
D|-9-9-9-9-9-9-9-9-|-6-6-6-6-6-6-6-6-|-4-4-4-4-4-4-4-4-|-2-2-2-2-9-9-9-9-|
A|-9-9-9-9-9-9-9-9-|-6-6-6-6-6-6-6-6-|-4-4-4-4-4-4-4-4-|-2-2-2-2-7-7-7-7-|
E|-7-7-7-7-7-7-7-7-|-4-4-4-4-4-4-4-4-|-2-2-2-2-2-2-2-2-|-0-0-0-0-0-0-0-0-|

I'm fading, fading, should turn and run (let last 0-2 ring on 2nd chorus only)
e|-----------------|-----------------|-----------------|---------|
B|-----------------|-----------------|-----------------|---------|
G|-----------------|-----------------|-----------------|---------|
D|-9-9-9-9-9-9-9-9-|-6-6-6-6-6-6-6-6-|-4-4-4-4-4-4-4-4-|-2-----2-|
A|-9-9-9-9-9-9-9-9-|-6-6-6-6-6-6-6-6-|-4-4-4-4-4-4-4-4-|-2-----2-|
E|-7-7-7-7-7-7-7-7-|-4-4-4-4-4-4-4-4-|-2-2-2-2-2-2-2-2-|-0-----0-|

Goes back to intro

Repeat verses and chorus like above.

The bridge (when he's shouting "waiting...waiting") is the same as the first part of the 
when he's singing the same thing  (7-9-9,4-6-6)
Tap to rate this tab
 
# A B C D E F G H I J K L M N O P Q R S T U V W X Y Z