Misc Unsigned Bands - I Is An Anarchist - Midnight Borderline tab

-------------------------------------------------------------------------------
			     I is an Anarchist- MIDNIGHT BORDERLINE
-------------------------------------------------------------------------------
Tabbed by: Isaac Groves
Email: Moisty_man500@hotmail.com

Tuning: Drop C

Intro
e|-------------------------------------------------------------------------------|
B|-------------------------------------------------------------------------------|
G|-------------------------------------------------------------------------------|
D|--1-xxxx-1-xxxxxxxx-1-xxxx-1-xxxxxxxx-1/13-xxxx-13-xxxx------------------------|
A|--1-xxxx-1-xxxxxxxx-1-xxxx-1-xxxxxxxx-1/13-xxxx-13-xxxx------------------------|
E|--1-xxxx-1-xxxxxxxx-1-xxxx-1-xxxxxxxx-1/13-xxxx-13-xxxx10p12p10-8p10p8p10p7----|

e|---------------------------------------------------------------------------|
B|---------------------------------------------------------------------------|
G|---------------------------------------------------------------------------|
D|-12-10-13-10-13-10-12-10-13-10-13-10-12-10-13-10-13-10-12-xxxxxx-----------|
A|-12-10-13-10-13-10-12-10-13-10-13-10-12-10-13-10-13-10-12-xxxxxx-----------|
E|-12-10-13-10-13-10-12-10-13-10-13-10-12-10-13-10-13-10-12-xxxxxx-----------|

e|------------------------------------------------------------------------------|
B|------------------------------------------------------------------------------|
G|------------------------------------------------------------------------------|
D|-12-10-1310131013101310-12-10-13-10-12-10-12-10-1310131013101310-12xxxxxx-----|
A|-12-10-1310131013101310-12-10-13-10-12-10-12-10-1310131013101310-12xxxxxx-----|
E|-12-10-1310131013101310-12-10-13-10-12-10-12-10-1310131013101310-12xxxxxx-----|

e|--------------------------------------------------------------------------------------|
B|--------------------------------------------------------------------------------------|
G|--------------------------------------------------------------------------------------|
D|-10121012-810810-78573532-------------------------------------------------------------|
A|-10121012-810810-78573532--x4 let last note ring on 4th time--------------------------|
E|-10121012-810810-78573532-------------------------------------------------------------|

e|------------------------------------------------------------------------------|
B|------------------------------------------------------------------------------|
G|---------------------------------5*-------------------------------------------|
D|---3-00-03-00-0787-3-00-03-00-00------5~--------------------------------------|
A|---3-00-03-00-0787-3-00-03-00-00------5~--------------------------------------|
E|---3-00-03-00-0787-3-00-03-00-00------5~--------------------------------------|


Verse(s)
Guitar 1
e|------------------------------------------------------------------------------|
B|------------------------------------------------------------------------------|
G|------------------------------------------------------------------------------|
D|--555555777777888888-1210812108-----------------------------------------------|
A|--555555777777888888-1210812108-----------------------------------------------|
E|--555555777777888888-1210812108-----------------------------------------------|

Guitar 2
e|---------------------------------------------------------------------------|
B|---------------------------------------------------------------------------|
G|---------------666666777777------------------------------------------------|
D|--777777888888-xxxxxxxxxxxx------------------------------------------------|
A|--555555555555-555555555555------------------------------------------------|
E|---------------------------------------------------------------------------|

Haven't done the chorus, solo and brindge yet :P


************************************

| /   slide up
| \   slide down
| h   hammer-on
| p   pull-off
| ~   vibrato
| +   harmonic
| x   Mute note
| b   Bend
| pb  Pre-bend
| br  Bend release
| pbr Pre-bend release
| brb Bend release bend

************************************
Tap to rate this tab
 
# A B C D E F G H I J K L M N O P Q R S T U V W X Y Z