Song name
# A B C D E F G H I J K L M N O P Q R S T U V W X Y Z

Misc Unsigned Bands - S4 League - Supersonic tab

%%%%%%%%%%%%%%%%%%%%%%%%%%%%%%%%%%%%%%%%%%%%%%%%%%%%%%%%%%%%%%%%%%%%%%%%%%%%%%%%%%%%
Title:	 SuperSonic								   
Artist: Planetboom								   
										   
One of the amazing songs composed for the online shooter game S4 League.          
Most die-hards out there know it as the BGM of Neden-1.			   
I was one of the few who left the BGM on default, because this song simply rocks. 
										   
Tab info:									   
This only covers the lead and a little bit of the rhythm section for now. 	    
Rhythm will be tabbed...Someday.						   
										   
Tabbed by Tung Phan (IGN: Adharaz)						   
%%%%%%%%%%%%%%%%%%%%%%%%%%%%%%%%%%%%%%%%%%%%%%%%%%%%%%%%%%%%%%%%%%%%%%%%%%%%%%%%%%%%

Intro (0:05) (x1)

E|---------------------------------|
B|---------------------------------|
G|-55-55-55-5--5-5-55-55-55-5555-7-|
D|-55-55-55-5--5-5-55-55-55-5555-7-|
A|-33-33-33-3--3-3-33-33-33-3333-5-|
E|---------------------------------|

Riff 1 (0:11) (x8)

E|---------------------------------|
B|---------------------------------|
G|---------------------------------|
D|-3/5-55--------3/5-55------------|
A|-3/5-55-3-4-5--3/5-55------------|
E|-1/3-33--------1/3-33-0-1-2------|

Riff 2 (0:36) (2x)

E|---------------------------------|
B|---------------------------------|
G|--3/5-5--3/5-5-------------------|
D|--3/5-5--3/5-5---2-3-4-----------|
A|--1/3-3--1/3-3---2-3-4-----------|
E|-----------------0-1-2-----------|

E|---------------------------------|
B|---------------------------------|
G|--3/5-5--3/5-5--9-10-11----------|
D|--3/5-5--3/5-5--9-10-11----------|
A|--1/3-3--1/3-3--7-8--9-----------|
E|---------------------------------|

Riff 1 (0:48) (x1)

E|---------------------------------|
B|---------------------------------|
G|---------------------------------|
D|-3/5-5---------3/5-5-------------|
A|-3/5-5--3-4-5--3/5-5-------------|
E|-1/3-3---------1/3-3--0-1-2------|

Riff 1 (0:51) (x1)
(Slightly different)

E|---------------------------------|
B|---------------------------------|
G|---------------------------------|
D|-3/5-5---------3/5-5-------------|
A|-3/5-5--3-4-5--3/5-5-------------|
E|-1/3-3---------1/3-3-------------|

Chorus (First half) (0:54) (x2)

E|---------------------------------|
B|------14b15-12-13~~--13-12-15----|
G|-12~~----------------------------|
D|---------------------------------|
A|---------------------------------|
E|---------------------------------|

E|---------------------------------|
B|------14b15-12-13~~--------------|
G|-12~~---------------/10--9-10-11-|
D|---------------------------------|
A|---------------------------------|
E|---------------------------------|

Chorus (Second half) (1:07) (x2)

E|------13b14-11-12~~--12-11-12-14-|
B|-12~~----------------------------|
G|---------------------------------|
D|---------------------------------|
A|---------------------------------|
E|---------------------------------|	    
				   
E|------13b14-11-12~~--------------|
B|-12~~---------------/10--9-10-11-|
G|---------------------------------|
D|---------------------------------|
A|---------------------------------|
E|---------------------------------|

Bridge/Altered riff 1 (1:37) (x2)

E|---------------------------------|
B|---------------------------------|
G|---------------------------------|
D|-55-55---------------------------|
A|-55-55-3-4-5---------------------|
E|-33-33---------------------------|

E|---------------------------------|
B|---------------------------------|
G|---------------------------------|
D|-3/5-55--------------------------|
A|-3/5-55--------------------------|
E|-1/3-33-0-1-2--------------------|

Bridge/Altered chorus (1:50) (x2)

E|---------------------------------|
B|-------14b15-12-13~~-------------|
G|-12-12---------------------------|
D|---------------------------------|
A|---------------------------------|
E|---------------------------------|

E|---------------------------------|
B|-------14b15-12-13~~--13-12-15---|
G|-12-12---------------------------|
D|---------------------------------|
A|---------------------------------|
E|---------------------------------|

Riff 2 (2:08) (x2)

E|---------------------------------|
B|---------------------------------|
G|--3/5-5--3/5-5-------------------|
D|--3/5-5--3/5-5---2-3-4-----------|
A|--1/3-3--1/3-3---2-3-4-----------|
E|-----------------0-1-2-----------|

E|---------------------------------|
B|---------------------------------|
G|--3/5-5--3/5-5--9-10-11----------|
D|--3/5-5--3/5-5--9-10-11----------|
A|--1/3-3--1/3-3--7-8--9-----------|
E|---------------------------------|

Riff 1 (2:21) (x1)

E|---------------------------------|
B|---------------------------------|
G|---------------------------------|
D|-3/5-5---------3/5-5-------------|
A|-3/5-5--3-4-5--3/5-5-------------|
E|-1/3-3---------1/3-3--0-1-2------|

Riff 1 (2:24) (x1)
(Slightly different)

E|---------------------------------|
B|---------------------------------|
G|---------------------------------|
D|-3/5-5---------3/5-5-------------|
A|-3/5-5--3-4-5--3/5-5-------------|
E|-1/3-3---------1/3-3-------------|

Chorus (First half) (2:27) (x2)

E|---------------------------------|
B|------14b15-12-13~~--13-12-15----|
G|-12~~----------------------------|
D|---------------------------------|
A|---------------------------------|
E|---------------------------------|

E|---------------------------------|
B|------14b15-12-13~~--------------|
G|-12~~---------------/10--9-10-11-|
D|---------------------------------|
A|---------------------------------|
E|---------------------------------|

Chorus (Second half) (2:39) (x2)

E|------13b14-11-12~~--12-11-12-14-|
B|-12~~----------------------------|
G|---------------------------------|
D|---------------------------------|
A|---------------------------------|
E|---------------------------------|	    
				   
E|------13b14-11-12~~--------------|
B|-12~~---------------/10--9-10-11-|
G|---------------------------------|
D|---------------------------------|
A|---------------------------------|
E|---------------------------------|

Riff 3 (2:51) (x2)

E|---------------------------------|
B|---------12----------------------|
G|-12--14------14---11--12-14------|
D|---------------------------------|
A|---------------------------------|
E|---------------------------------|

E|---------------------------------|
B|---------12----------------------|
G|-12--14------14---/10--9-10-11---|
D|---------------------------------|
A|---------------------------------|
E|---------------------------------|

Riff 3 (Ending note) (3:03) (x1)

E|---------------------------------|
B|---------------------------------|
G|-12~~----------------------------|
D|---------------------------------|
A|---------------------------------|
E|---------------------------------|

Outro (3:05) (x1)
(Same as intro)

E|---------------------------------|
B|---------------------------------|
G|-55-55-55-5--5-5-55-55-55-5555-7\|
D|-55-55-55-5--5-5-55-55-55-5555-7\|
A|-33-33-33-3--3-3-33-33-33-3333-5\|
E|---------------------------------|

************************************

| /   slide up
| \   slide down
| h   hammer-on
| p   pull-off
| ~   vibrato
| +   harmonic
| x   Mute note
| b   Bend
| pb  Pre-bend
| br  Bend release
| pbr Pre-bend release
| brb Bend release bend

************************************
Tap to rate this tab
 
# A B C D E F G H I J K L M N O P Q R S T U V W X Y Z