Song name
# A B C D E F G H I J K L M N O P Q R S T U V W X Y Z

Misc Unsigned Bands - S4 League - Nova tab

%%%%%%%%%%%%%%%%%%%%%%%%%%%%%%%%%%%%%%%%%%%%%%%%%%%%%%%%%%%%%%%%%%%%%%%%%%%%%%%%%%%%
Title:	 Nova								  	   
Artist: Bexter									   
										   
Another song composed for the online shooter game S4 League.          		   
This time, it's Nova, the BGM of Station-1.			  		   
										   
Tab info:									   
Nothing much to say here, besides the fact that I tabbed this pretty quickly, 	   
so sorry for the small mistakes here and there.				  
										   
Tabbed by Tung Phan (IGN: Adharaz)						   
%%%%%%%%%%%%%%%%%%%%%%%%%%%%%%%%%%%%%%%%%%%%%%%%%%%%%%%%%%%%%%%%%%%%%%%%%%%%%%%%%%%%

Intro (0:05) (x1)
(Begins with a pickslide)
(Let the chords ring)

E|------------------------------------------|
B|------------------------------------------|
G|-------5-----7-----14-----(14)\-----------|
D|-5-----5-----7-----14-----(14)\-----------|
A|-5-----3-----5-----12-----(12)\-----------|
E|-3----------------------------------------|

Riff 1 (0:40) (x1)

E|------------------------------------------|
B|------------------------12h14p12----------|
G|-1414--1414--1414--1414---------13p14h13\-|
D|-1414--1414--1412--1414-------------------|
A|-1212--1212--1212--1212-------------------|
E|------------------------------------------|

E|------------------------------------------|
B|------------------------------------------|
G|-1414--1414--1414--1414-------------------|
D|-1414--1414--1414--1414---(15)\-----------|
A|-1212--1212--1212--1212----15-\-----------|
E|---------------------------15-\-----------|

Chorus (Same as Intro) (0:53) (x2)

E|------------------------------------------|
B|------------------------------------------|
G|-------5-----7-----14-----(14)\-----------|
D|-5-----5-----7-----14-----(14)\-----------|
A|-5-----3-----5-----12-----(12)\-----------|
E|-3----------------------------------------|

Riff 1 (Without slide at the end) (1:20) (x1)

E|------------------------------------------|
B|------------------------12h14p12----------|
G|-1414--1414--1414--1414---------13p14h13\-|
D|-1414--1414--1412--1414-------------------|
A|-1212--1212--1212--1212-------------------|
E|------------------------------------------|

E|------------------------------------------|
B|------------------------------------------|
G|-1414--1414--1414--1414-------------------|
D|-1414--1414--1414--1414-------------------|
A|-1212--1212--1212--1212-------------------|
E|------------------------------------------|

Outro (1:33) (x1)
(2 guitars)

(Both guitars)
E|------------------------------------------|
B|------------------------------------------|
G|-9~~-9-11-9~~-11-9------------------------|
D|-------------------12-11-12-12/14~~-------|
A|------------------------------------------|
E|------------------------------------------|

E|------------------------------------------|
B|------------------------------------------|
G|-9~~-9-11-9~~-11-9------------------------|
D|-------------------12-11-11\9-------------|
A|------------------------------12~~--------|
E|------------------------------------------|

(Guitar I repeats the above riff)
(Guitar 2 plays the one below)

E|------------------------------------------|
B|-14~~-14-15-14~~-15-14-12----12-12/14~~---|
G|--------------------------14--------------|
D|------------------------------------------|
A|------------------------------------------|
E|------------------------------------------|

E|------------------------------------------|
B|-14~~-14-15-14~~-15-14-12-----------------|
G|--------------------------14-14\12--------|
D|-----------------------------------14~~---|
A|---------------------------(Fades out)----|
E|------------------------------------------|

************************************

| /   slide up
| \   slide down
| h   hammer-on
| p   pull-off
| ~   vibrato
| +   harmonic
| x   Mute note
| b   Bend
| pb  Pre-bend
| br  Bend release
| pbr Pre-bend release
| brb Bend release bend

************************************
Tap to rate this tab
 
# A B C D E F G H I J K L M N O P Q R S T U V W X Y Z