Misc Unsigned Bands - Sergio V - Isolated Mind tab

Tabbed by: Sergio V.
Email:

Tuning: Standard


e-|----------2---------------2---------------2---------------2---------------2|
B-|--------0---0-----------0---0-----------0---0-----------0---0-----------0--|
G-|------0-------0-------0-------0-------0-------0-------0-------0-------0----|
D-|----2-----------2---2-----------2---2-----------2---2-----------2---2------|
A-|--3---------------3---------------2---------------2---------------0--------|
E-|---------------------------------------------------------------------------|

e-|----------------2---------------0---------------0--------------------------|
B-|--0-----------0---0-----------1---1-----------1----------------------------|
G-|----0-------0-------0-------2-------2-------2------------------------------|
D-|------2---2-----------2---2-----------2---2--------------------------------|
A-|--------0---------------0---------------0----------------------------------|
E-|---------------------------------------------------------------------------|

                                              [-Short Pause-]
e-|----------2---------------2---------------2---------------2-2/3---------2--|
B-|--------0---0-----------0---0-----------0---------------0-------------0---0|
G-|------0-------0-------0-------0-------0---------------0-------------0------|
D-|----2-----------2---2-----------2---2---------------2-------------2--------|
A-|--3---------------3---------------2---------------2-------------0----------|
E-|---------------------------------------------------------------------------|

e-|-------------2---------------2---------------2---------------0-------------|
B-|-----------0---0-----------0---0-----------0---0-----------0---------------|
G-|-0-------0-------0-------0-------0-------0-------0-------0-----------------|
D-|---2---2-----------2---2-----------2---2-----------2---2-------------------|
A-|-----0---------------------------------------------------------------------|
E-|---------------------3---------------2---------------0---------------------|

e-|----------2---------------2---------------2---------------2---------------2|
B-|--------0---0-----------0---0-----------0---0-----------0---0-----------0--|
G-|------0-------0-------0-------0-------0-------0-------0-------0-------0----|
D-|----2-----------2---2-----------2---2-----------2---2-----------2---2------|
A-|--3---------------3---------------2---------------2---------------0--------|
E-|---------------------------------------------------------------------------|
Tap to rate this tab
 
# A B C D E F G H I J K L M N O P Q R S T U V W X Y Z