Song name
# A B C D E F G H I J K L M N O P Q R S T U V W X Y Z

Misc Unsigned Bands - Club 8 - Someday chords

Highlighted       Show chord diagrams
SOMEDAY by Club 8


INTRO: B-C#m-Ebm-E; B-C#m-Ebm--


VERSE:
B         Ebm                E
 Though I wish I'll be happy someday
B             Ebm         E            Ebm  E
 the thoughts cannot take all my time


CHORUS:
         B              E
 No it's not what I was thinking
          C#m                              E
 but it's everything that i need here and now
         B              E
 No it's not what i was thinking
          C#m                              E
 but it's everything that i need here and now


Fill in: B-Ebm-E--; (2x)


VERSE:
B            Ebm          E
 My days are seldom how I plan them
B        Ebm              E              Ebm  E       
 and somehow I'll have to live with that


CHORUS:
         B              E
 No it's not what I was thinking
          C#m                              E
 but it's everything that i need here and now
         B              E
 No it's not what i was thinking
          C#m                              E
 but it's everything that i need here and now


BRIDGE:
Ebm           E                 B
 Please understand the things I say
Ebm           E              B
 You're gonna be like me someday


ADLIB: 

guitar 1: B-E-C#m-E-;(2x)

guitar 2:
   B                      E
e|-----------------------------------------------\
B|-----------------5-4--------------------5-4---- \ 
G|-4h6-4h6-4h6-4-6-----4--4h6-4h6-4h6-4-6-----4--  \
D|-----------------------------------------------   \
A|-----------------------------------------------    \
E|-----------------------------------------------     \
   C#m              E                                 2x 
e|------------------------------7----------------     /
B|-----5-----5--4h5p4-7-7-7-4-7---7-7------------    /
G|-4-6---4-6-------------------------------------   /
D|-----------------------------------------------  /
A|----------------------------------------------- / 
E|-----------------------------------------------/


CHORUS:
         B              E
 No it's not what I was thinking
          C#m                              E
 but it's everything that i need here and now
         B              E
 No it's not what i was thinking
          C#m                              E
 but it's everything that i need here and now



NITRAM
06-23-10
11:00 PM
Tap to rate this tab
 
# A B C D E F G H I J K L M N O P Q R S T U V W X Y Z