Misc Unsigned Bands - Julian Smith - Jellyfish tab

E|-------------|-----------------|-----------------|------------------|
B|-------------|-----------------|-----------------|------------------|
G|-------------|-----------------|-----------------|------------------|
D|-------------|-----------------|-----------------|------------------|
A|-------------|------10-10----10|------10-10----10|-------10-10---10-|
E|-8-8-8-8-8-8-|-8-8--------8----|-8-8--------8----|-11-11------11----|

|-----------------|
|-----------------|
|-----------------|
|-----------------|
|--------8-8-----8|
|-10-10------10---|

Repeat until song ends.
Just make sure to leave pauses at the "...YOU'LL DIE!!" parts.
Tap to rate this tab
 
# A B C D E F G H I J K L M N O P Q R S T U V W X Y Z