Misc Unsigned Bands - The Deaf Isle - Good Riddance tab

e------------------------------------------------------------------------------|
B------------------------------------------------------------------------------|
G------------------------------------------------------------------------------|
D------------------------------------------------------------------------------|
A---7----7----7----7---7----7----7---7-----9-----9----9-----9----9-----9-------|
E-0---8-----0---8----0---8----0----8-----7----10----7----10----7----10---------|
(continued)
e------------------------------------------------------------------------------|
B------------------------------------------------------------------------------|
G------------------------------------------------------------------------------|
D------------------------------------------------------------------------------|
A----9----9----10^12-----------------------------------------------------------|
E--7---10----7-----------------------------------------------------------------|
Tap to rate this tab
 
# A B C D E F G H I J K L M N O P Q R S T U V W X Y Z