Misc Unsigned Bands - David Rama - Untitled I tab

untitled i

Saturday, June 26, 2010
|-------5-7-7h8~~-7-5------------------------|
|-----5---------------5-5h6~~-5s4-4h5-5~~~~~-|
|---5----------------------------------------|
|-7------------------------------------------|
|--------------------------------------------|
|--------------------------------------------|

|---------5----------------------------------|
|-------6----6-6-6-5-------------------------|
|-----7--------------7-5-4h5-5~~~~~----------|
|---7----------------------------------------|
|-5------------------------------------------|
|--------------------------------------------|

 
|--------3~~---------------------------------|
|-------3~~---3-3-3-5-5h6~-5-3--5-3--1~~~----|
|------4~~---------------------4-4s-2--------|
|-----5~~------------------------------------|
|---5~~--------------------------------------|
|-3~~----------------------------------------|

|-----------------------------------------------------------|
|-------1~~-0-1-3-1-0h1p0-----------------------------------|
|-----2-------------------2-0-2-----------------------------|
|---2---------------------------2-0-2-----------------------|
|-0------------------------------------3-2-0----------------|
|--------------------------------------------3-1-0~~x-------|

|---------------------0-1-3-3s5-3-1-0-------------------------|
|-----1-0-1-3-1-0h1h3---------------3-1-0---------------------|
|----2------------------------------------2-0-----------------|
|---2-----------------------------------------2-0-------------|
|--0--------------------------------------------3-2-0---------|
|-0---------------------------------------------------3-1-0~~-|

|----------0~~~--|
|---------1~~~---|
|--------2~~~----|
|-------2~~~-----|
|------0~~~------|
|-0~~-0~~~-------|
Tap to rate this tab
 
# A B C D E F G H I J K L M N O P Q R S T U V W X Y Z