Misc Unsigned Bands - A Dark Halo - Silence tab

Silence
By A Dark Halo
Tuning: Drop D

Intro
(Clean)
e|------------------------------|
B|------------------------------|
G|------------------------------|
D|-----3~-------3~--------------|
A|---0--------0----------3----3-|  X6
D|--0-0------0-0----\3-5---3-5--|


Verse

(Distorted)
|--------------------------------------|
|--------------------------------------|
|--------------------------------------|
|---------------------3--5-5-3-5-5-----|
|-00-0x----1h3-00-0x--3--5-3-3-5-3-1h3-|
|-00-0x----1h3-00-0x--3--5---3-5---1h3-|


 |-----------------------------------------|
 |-----------------------------------------|
 |-----------------------------------------|
 |------------------------3--5-5-3-5-5-----|
 |-00-0x-000-000-00000-0x-3--5-3-3-5-3-1h3-|
 |-00-0x-000-000-00000-0x-3--5---3-5---1h3-|
PM       ... ... ...


Pre-Chorus

|----------------------|
|----------------------|
|-9~---7~---5~---------|
|-7~---5~---3~---------|
|-7~---5~---3~--00000x-|
|-7~---5~---3~--00000x-|


Chorus

|---------|---------|---------|----------------|---------------|
|---------|---------|---------|----------------|---------------|
|---------|---------|---------|----------------|---------------|
|---------|---------|---------|----------------|-5~------5-3-0-|
|-0~------|-(0)-----|-(0)-----|----00x-0~------|-5~------5-3-0-|
|-0~------|-(0)-----|-(0)-----|-\3-00x-0~------|-5~------5-3-0-|

|--------|---------|--------|----------------|
|--------|---------|--------|----------------|
|--------|---------|--------|----------------|
|--------|---------|--------|-55555555-------|
|-0~-----|-5~------|-(5)----|-5555555555555x-|
|-0~-----|-5~------|-(5)----|-5555555555555x-|
PM                                    .....


Verse 2

(Clean)
|------------------------------|
|------------------------------|
|------------------------------|
|-----3~-------3~--------------|
|---0--------0----------3----3-|  X2
|--0-0------0-0----\3-5---3-5--|

(Distorted)
|--------------------------------------|
|--------------------------------------|
|--------------------------------------|
|---------------------3--5-5-3-5-5-----|
|-00-0x----1h3-00-0x--3--5-3-3-5-3-1h3-|
|-00-0x----1h3-00-0x--3--5---3-5---1h3-|


 |-----------------------------------------|
 |-----------------------------------------|
 |-----------------------------------------|
 |------------------------3--5-5-3-5-5-----|
 |-00-0x-000-000-00000-0x-3--5-3-3-5-3-1h3-|
 |-00-0x-000-000-00000-0x-3--5---3-5---1h3-|
PM       ... ... ...


Pre-Chorus

Chorus


Solo

|---15r~/-|I dont really know-|-17-------------------------------------|
|---17r~/-|how to describe----|---17-18p17-----------------------------|
|---------|the part after-----|------------17--------------------------|
|---------|that...use broken--|---------------19-//little pick slide//-|
|---------|pick slides on the-|----------------------------------------|
|---------|D,A, and E strings-|----------------------------------------|

|-------------------------|
|-------------------------|
|-15~-14--15-17171717-17/-|
|-------------------------|
|-------------------------|
|-------------------------|

Chorus
Tap to rate this tab
 
# A B C D E F G H I J K L M N O P Q R S T U V W X Y Z