Misc Unsigned Bands - Alli Harju - Different tab

this is the basics of the song [: let me know if you don't understand anything, 
feel free to message me or email me [allideex3@gmail.com]
<3alli
-------------------------

No Capo

   G  D/F# Em Cm
e|-3---3---0---3-|
B|-3---3---0---3-|
G|-0---2---0---5-|
D|-0---0---2---5-|
A|-2---0---2---3-|
E|-3---2---0---3-|



G                         D/F#
lately i've been going crazy
                     Em
and i'm trying to understand
         Cm
how it happened to me

        G
i've always been kindof strange
D/F#              Em
maybe a little deranged
            Cm 
but not like this

                 G
but maybe it's you
               D/F#
doing this to me
             Em
maybe you changed me
       Cm
changed the key
         G              D/F#
of the song, that i'll forever be
             Em                Cm
maybe i'm different, just a little different.

[same basic pattern for the rest of the song]

nothing is the same
as it was before
i look at life a little differently
it's a wide-open door

even without you
it's all crystal clear
i know what i want
with or without you here

but maybe it was you
who did this to me
maybe you changed me
changed the key
of the song, that i'll forever be
maybe i'm different, just a little different.

[interlude]
 G    D/F#    Em                 Cm
ohhhh oh ohh maybe i'm different, maybe i'm different
G   D/F#    Em               Cm
           just a little different

[finger picking starts here]
       [G]        [D/F#]      [Em]       [Cm]
e|------3----------3---------------------------|
B|----3---3------3---3---------0------------3--|
G|---0----------2------------0---0--------5---5|
D|-------------------------2------------5------|
A|-----------------------2------------3--------|
E|-3----------2--------------------------------|
maybe you changed me
changed the key
of the song, that i'll forever be
maybe i'm different, just a little different.

[end on G]
Tap to rate this tab
 
# A B C D E F G H I J K L M N O P Q R S T U V W X Y Z