Misc Unsigned Bands - Vacancies End - Lions Den tab

“Lions’ Den” by Vacancies End

Intro part 1-keyboard plays on sweep effect-
C,Ab,C,Ab,C,Ab,C,Ab,C,Ab,C,Ab,C,Ab,C,Ab,D,Bb,D,Bb

Intro Part 1-Guitar two-clean
E------------| (x2)    |---------------------------------------------------| (x2)
B12~8~12~8~--|         |-------12--------12---12~------8--------8----8-----|
G12~8~12~8~--|         |----12---12~-------12--------8----8~------8--------|
D10~6~10~6~--|         |-10-----------10----------\6----------6------------|
A------------|         |---------------------------------------------------|
D------------|         |---------------------------------------------------|

E-----------------------------------------| (x2) |---------------------|(x2)
B-----------------------------------12----|      |----------------8----|
G---12------12------12------12----------12|      |---8---8--8---8---8--|
D10---1010---1010---1010---1010-----------|      |-6--66-66-66-66------|
A-----------------------------------------|      |---------------------|
D-----------------------------------------|      |---------------------|
   ^Repeat both Bars
E-----------------------------------------|(x2)|-----------------------|(x2)
B------------------------------------14---|    |------------------10---|
G----------14----14-----14----14-------14-|    |--10--10--10--10----10-|
D-10\12 12---1212---1212--1212---1212-----|    |8---88--88--88--88-----|
A-----------------------------------------|    |-----------------------|
D-----------------------------------------|    |-----------------------|

Intro part 2-Guitar 1
E---------------------------------|
B---------------------------------|
G---------------------------------|
D-19tr-17tr-15tr-14tr ------------|
A---------------------------------|
D---------------------------------|

Intro part 2-Guitar 2
E------------------------------------------|
B------------------------------------------|
G------------------------------------------|
D------------------------------------------|
A------5—3—3h5-55-------5—3---3h5-33-------|
D-0-00--0-0---------0-00—0---0-------------|

Verse-Both Guitars
E-----------------------------------             E------------------|
B-----------------------------------             B------------------|
G------7-----5----------------------             G------------------|
D------7-----5------5------3-0-3-5-              D-5-5-5-5-5~~~~~~--|
A00-0-5-00-0-3-00-0-5-00-0-3-0-3-5-              A-5-5-5-5-5~~~~~~--|
D00-0---00-0---00-0-5-00-0-3-0-3-5-    (x2) then D-5-5-5-5-5~~~~~~--|

Chorus- Guitar 1 plays intro part two

Guitar 2
E-------------------------------------------------------------------------|
B-------------------------------------------------------------------------|
G-------------------------------------------------------------------------|
D-------------------------------------------------------------------------|
A---------3h4h5-5----------5—3----------3h4h5-3---------------------------|
D-0-3h4h5----------0-3h4h5------0-3h4h5-----------0-3h4h5-5-3-------------|    (x2)

E--------------------------------------|
B--------------------------------------|
G--------------------------------------|
D--------------------------------------|
A-0-3030-5-030--5-3--0-3030-3-030—5-3--|
D-0-3030---030-------0-3030---030—5-3--|        (x2)

Verse 2
Chorus 2
Verse 3
Chorus 3

Bridge Part 1-intro part 1 over bass playing chorus riff
Bridge Part 2-Digitech whammy pedal improvisation (2oct up bending)-both guitars- over 
playing chorus riff

Chorus 4

(Slide down from 12th fret for last note)
Tap to rate this tab
 
# A B C D E F G H I J K L M N O P Q R S T U V W X Y Z